  0
SECTION
  2
HEADER
  9
$ACADVER
  1
AC1015
  9
$ACADMAINTVER
 70
    13
  9
$DWGCODEPAGE
  3
ANSI_1252
  9
$INSBASE
 10
0.0
 20
0.0
 30
0.0
  9
$EXTMIN
 10
-95.01475681919123
 20
39.9700610214038
 30
-0.0015258207003583
  9
$EXTMAX
 10
705.0340713058654
 20
640.0092266339075
 30
0.0000000349246037
  9
$LIMMIN
 10
0.0
 20
0.0
  9
$LIMMAX
 10
420.0
 20
297.0
  9
$ORTHOMODE
 70
     0
  9
$REGENMODE
 70
     1
  9
$FILLMODE
 70
     1
  9
$QTEXTMODE
 70
     0
  9
$MIRRTEXT
 70
     1
  9
$LTSCALE
 40
1.0
  9
$ATTMODE
 70
     1
  9
$TEXTSIZE
 40
2.5
  9
$TRACEWID
 40
1.0
  9
$TEXTSTYLE
  7
Standard
  9
$CLAYER
  8
0
  9
$CELTYPE
  6
ByLayer
  9
$CECOLOR
 62
     7
  9
$CELTSCALE
 40
1.0
  9
$DISPSILH
 70
     0
  9
$DIMSCALE
 40
1.0
  9
$DIMASZ
 40
2.5
  9
$DIMEXO
 40
0.625
  9
$DIMDLI
 40
3.75
  9
$DIMRND
 40
0.0
  9
$DIMDLE
 40
0.0
  9
$DIMEXE
 40
1.25
  9
$DIMTP
 40
0.0
  9
$DIMTM
 40
0.0
  9
$DIMTXT
 40
2.5
  9
$DIMCEN
 40
2.5
  9
$DIMTSZ
 40
0.0
  9
$DIMTOL
 70
     0
  9
$DIMLIM
 70
     0
  9
$DIMTIH
 70
     0
  9
$DIMTOH
 70
     0
  9
$DIMSE1
 70
     0
  9
$DIMSE2
 70
     0
  9
$DIMTAD
 70
     1
  9
$DIMZIN
 70
     8
  9
$DIMBLK
  1

  9
$DIMASO
 70
     1
  9
$DIMSHO
 70
     1
  9
$DIMPOST
  1

  9
$DIMAPOST
  1

  9
$DIMALT
 70
     0
  9
$DIMALTD
 70
     3
  9
$DIMALTF
 40
0.03937007874016
  9
$DIMLFAC
 40
1.0
  9
$DIMTOFL
 70
     1
  9
$DIMTVP
 40
0.0
  9
$DIMTIX
 70
     0
  9
$DIMSOXD
 70
     0
  9
$DIMSAH
 70
     0
  9
$DIMBLK1
  1

  9
$DIMBLK2
  1

  9
$DIMSTYLE
  2
ISO-25
  9
$DIMCLRD
 70
     0
  9
$DIMCLRE
 70
     0
  9
$DIMCLRT
 70
     0
  9
$DIMTFAC
 40
1.0
  9
$DIMGAP
 40
0.625
  9
$DIMJUST
 70
     0
  9
$DIMSD1
 70
     0
  9
$DIMSD2
 70
     0
  9
$DIMTOLJ
 70
     0
  9
$DIMTZIN
 70
     8
  9
$DIMALTZ
 70
     0
  9
$DIMALTTZ
 70
     0
  9
$DIMUPT
 70
     0
  9
$DIMDEC
 70
     2
  9
$DIMTDEC
 70
     2
  9
$DIMALTU
 70
     2
  9
$DIMALTTD
 70
     3
  9
$DIMTXSTY
  7
Standard
  9
$DIMAUNIT
 70
     0
  9
$DIMADEC
 70
     0
  9
$DIMALTRND
 40
0.0
  9
$DIMAZIN
 70
     0
  9
$DIMDSEP
 70
    44
  9
$DIMATFIT
 70
     3
  9
$DIMFRAC
 70
     0
  9
$DIMLDRBLK
  1

  9
$DIMLUNIT
 70
     2
  9
$DIMLWD
 70
    -2
  9
$DIMLWE
 70
    -2
  9
$DIMTMOVE
 70
     0
  9
$LUNITS
 70
     2
  9
$LUPREC
 70
     2
  9
$SKETCHINC
 40
1.0
  9
$FILLETRAD
 40
10.0
  9
$AUNITS
 70
     0
  9
$AUPREC
 70
     0
  9
$MENU
  1
.
  9
$ELEVATION
 40
0.0
  9
$PELEVATION
 40
0.0
  9
$THICKNESS
 40
0.0
  9
$LIMCHECK
 70
     0
  9
$CHAMFERA
 40
10.0
  9
$CHAMFERB
 40
10.0
  9
$CHAMFERC
 40
20.0
  9
$CHAMFERD
 40
0.0
  9
$SKPOLY
 70
     0
  9
$TDCREATE
 40
2452351.754275347
  9
$TDUCREATE
 40
2452351.670942014
  9
$TDUPDATE
 40
2453137.871244490
  9
$TDUUPDATE
 40
2453137.787911157
  9
$TDINDWG
 40
0.2330080903
  9
$TDUSRTIMER
 40
0.2330061227
  9
$USRTIMER
 70
     1
  9
$ANGBASE
 50
0.0
  9
$ANGDIR
 70
     0
  9
$PDMODE
 70
     0
  9
$PDSIZE
 40
0.0
  9
$PLINEWID
 40
0.0
  9
$SPLFRAME
 70
     0
  9
$SPLINETYPE
 70
     6
  9
$SPLINESEGS
 70
     8
  9
$HANDSEED
  5
570
  9
$SURFTAB1
 70
     6
  9
$SURFTAB2
 70
     6
  9
$SURFTYPE
 70
     6
  9
$SURFU
 70
     6
  9
$SURFV
 70
     6
  9
$UCSBASE
  2

  9
$UCSNAME
  2

  9
$UCSORG
 10
0.0
 20
0.0
 30
0.0
  9
$UCSXDIR
 10
1.0
 20
0.0
 30
0.0
  9
$UCSYDIR
 10
0.0
 20
1.0
 30
0.0
  9
$UCSORTHOREF
  2

  9
$UCSORTHOVIEW
 70
     0
  9
$UCSORGTOP
 10
0.0
 20
0.0
 30
0.0
  9
$UCSORGBOTTOM
 10
0.0
 20
0.0
 30
0.0
  9
$UCSORGLEFT
 10
0.0
 20
0.0
 30
0.0
  9
$UCSORGRIGHT
 10
0.0
 20
0.0
 30
0.0
  9
$UCSORGFRONT
 10
0.0
 20
0.0
 30
0.0
  9
$UCSORGBACK
 10
0.0
 20
0.0
 30
0.0
  9
$PUCSBASE
  2

  9
$PUCSNAME
  2

  9
$PUCSORG
 10
0.0
 20
0.0
 30
0.0
  9
$PUCSXDIR
 10
1.0
 20
0.0
 30
0.0
  9
$PUCSYDIR
 10
0.0
 20
1.0
 30
0.0
  9
$PUCSORTHOREF
  2

  9
$PUCSORTHOVIEW
 70
     0
  9
$PUCSORGTOP
 10
0.0
 20
0.0
 30
0.0
  9
$PUCSORGBOTTOM
 10
0.0
 20
0.0
 30
0.0
  9
$PUCSORGLEFT
 10
0.0
 20
0.0
 30
0.0
  9
$PUCSORGRIGHT
 10
0.0
 20
0.0
 30
0.0
  9
$PUCSORGFRONT
 10
0.0
 20
0.0
 30
0.0
  9
$PUCSORGBACK
 10
0.0
 20
0.0
 30
0.0
  9
$USERI1
 70
     0
  9
$USERI2
 70
     0
  9
$USERI3
 70
     0
  9
$USERI4
 70
     0
  9
$USERI5
 70
     0
  9
$USERR1
 40
0.0
  9
$USERR2
 40
0.0
  9
$USERR3
 40
0.0
  9
$USERR4
 40
0.0
  9
$USERR5
 40
0.0
  9
$WORLDVIEW
 70
     1
  9
$SHADEDGE
 70
     3
  9
$SHADEDIF
 70
    70
  9
$TILEMODE
 70
     1
  9
$MAXACTVP
 70
    64
  9
$PINSBASE
 10
0.0
 20
0.0
 30
0.0
  9
$PLIMCHECK
 70
     0
  9
$PEXTMIN
 10
5.358742531680491
 20
-28.52818305426035
 30
0.0
  9
$PEXTMAX
 10
1189.488276697395
 20
629.2220906746177
 30
0.0
  9
$PLIMMIN
 10
-16.9757080078125
 20
-4.995333194732666
  9
$PLIMMAX
 10
1222.967651367187
 20
604.5623450279236
  9
$UNITMODE
 70
     0
  9
$VISRETAIN
 70
     1
  9
$PLINEGEN
 70
     0
  9
$PSLTSCALE
 70
     1
  9
$TREEDEPTH
 70
  3020
  9
$CMLSTYLE
  2
Standard
  9
$CMLJUST
 70
     0
  9
$CMLSCALE
 40
20.0
  9
$PROXYGRAPHICS
 70
     1
  9
$MEASUREMENT
 70
     1
  9
$CELWEIGHT
370
    -1
  9
$ENDCAPS
280
     0
  9
$JOINSTYLE
280
     0
  9
$LWDISPLAY
290
     1
  9
$INSUNITS
 70
     4
  9
$HYPERLINKBASE
  1

  9
$STYLESHEET
  1

  9
$XEDIT
290
     1
  9
$CEPSNTYPE
380
     0
  9
$PSTYLEMODE
290
     1
  9
$FINGERPRINTGUID
  2
{462751C0-39C9-11D6-829A-00A0CCC62B9D}
  9
$VERSIONGUID
  2
{246BF968-6179-4BEF-B149-0F017E9F31EF}
  9
$EXTNAMES
290
     1
  9
$PSVPSCALE
 40
0.0
  9
$OLESTARTUP
290
     0
  0
ENDSEC
  0
SECTION
  2
CLASSES
  0
CLASS
  1
ACDBDICTIONARYWDFLT
  2
AcDbDictionaryWithDefault
  3
AutoCAD 2000
 90
        0
280
     0
281
     0
  0
CLASS
  1
ACDBPLACEHOLDER
  2
AcDbPlaceHolder
  3
AutoCAD 2000
 90
        0
280
     0
281
     0
  0
CLASS
  1
LAYOUT
  2
AcDbLayout
  3
AutoCAD 2000
 90
        0
280
     0
281
     0
  0
CLASS
  1
DICTIONARYVAR
  2
AcDbDictionaryVar
  3
AutoCAD 2000
 90
        0
280
     0
281
     0
  0
CLASS
  1
SORTENTSTABLE
  2
AcDbSortentsTable
  3
AutoCAD 2000
 90
        0
280
     0
281
     0
  0
CLASS
  1
ACME_DOCUMENT
  2
AcMeDbDoc
  3
AcMeServices
 90
        0
280
     0
281
     0
  0
CLASS
  1
ACMESCOPE
  2
AcMeScope
  3
AcMeServices
 90
        0
280
     0
281
     0
  0
CLASS
  1
ACMECOMMANDHISTORY
  2
AcMeCommandHistory
  3
AcMeServices
 90
        0
280
     0
281
     0
  0
CLASS
  1
ACIMSYSVARMAN
  2
AcImSysVarManager
  3
AcMeServices
 90
        0
280
     0
281
     0
  0
CLASS
  1
ACIMREALSYSVAR
  2
AcImRealSysVar
  3
AcMeServices
 90
        0
280
     0
281
     0
  0
CLASS
  1
ACIMINTSYSVAR
  2
AcImIntSysVar
  3
AcMeServices
 90
        0
280
     0
281
     0
  0
CLASS
  1
ACMEDRAWINGMAN
  2
AcMeDrawingMan
  3
AcMeServices
 90
        0
280
     0
281
     0
  0
CLASS
  1
ACMEVIEW
  2
AcMeView
  3
AcMeServices
 90
        0
280
     0
281
     0
  0
CLASS
  1
ACDBENTITYCACHE
  2
AcMeEntityCache
  3
AcMeServices
 90
        0
280
     0
281
     0
  0
CLASS
  1
GSMANAGER
  2
AcMeGSManager
  3
AcMeServices
 90
        0
280
     0
281
     0
  0
CLASS
  1
AMDTINTERNALREACTOR
  2
AmdtInternalReactor
  3
AcMeServices
 90
        0
280
     0
281
     0
  0
CLASS
  1
ACMESTATEMGR
  2
AcMeStateMgr
  3
AcMeServices
 90
        0
280
     0
281
     0
  0
CLASS
  1
ACGREFMASTER
  2
AcGrefMaster
  3
AcAttribServices
 90
        0
280
     0
281
     0
  0
CLASS
  1
AM_DRAWING_MGR
  2
AcDmDwgMgr
  3
AcMechDwgViewMgmt
 90
        0
280
     0
281
     0
  0
CLASS
  1
AM_DWG_DOCUMENT
  2
AcDmDwgDocument
  3
AcMechDwgViewMgmt
 90
        0
280
     0
281
     0
  0
CLASS
  1
AM_DWG_SHEET
  2
AcDmSheet
  3
AcMechDwgViewMgmt
 90
        0
280
     0
281
     0
  0
CLASS
  1
AM_VIEWDIMPARMAP
  2
AcDmViewDimParMap
  3
AcMechDwgViewMgmt
 90
        0
280
     0
281
     0
  0
CLASS
  1
AM_DWGMGR_NAME
  2
AcDmDwgMgrName
  3
AcMechDwgViewMgmt
 90
        0
280
     0
281
     0
  0
CLASS
  1
ACME_DATABASE
  2
AcMeDbDatabase
  3
AcMeServices
 90
        0
280
     0
281
     0
  0
CLASS
  1
ACRFINSADJUSTERMGR
  2
AcRfInsAdjusterMgr
  3
AcMeServices
 90
        0
280
     0
281
     0
  0
CLASS
  1
ACGREFACADMASTER
  2
AcGrefacadMaster
  3
AcGrefServices
 90
        0
280
     0
281
     0
  0
CLASS
  1
AMDTMENUSTATEMGR
  2
AmdtMenuStateMgr
  3
McadcomServices
 90
        0
280
     0
281
     0
  0
CLASS
  1
AMDTMCOMMENUSTATE
  2
AmdtMcomMenuState
  3
McadcomServices
 90
        0
280
     0
281
     0
  0
CLASS
  1
AMIMASTER
  2
AmiMaster
  3
AmiServices
 90
        0
280
     0
281
     0
  0
CLASS
  1
AMGSETTINGSOBJ
  2
AmgSettingsObj
  3
"AcadM|Product Description: AutoCAD Mechanical 2000|Company: Autodesk"
 90
        0
280
     0
281
     0
  0
CLASS
  1
ASAPP
  2
AcAsAppObject
  3
AutoSurfServices
 90
        0
280
     0
281
     0
  0
CLASS
  1
IM_STATIC_MAN
  2
AcImStaticVarManager
  3
AcMeServices
 90
        0
280
     0
281
     0
  0
CLASS
  1
ACIMSTRSYSVAR
  2
AcImStrSysVar
  3
AcMeServices
 90
        0
280
     0
281
     0
  0
CLASS
  1
ACIMDBLSTATICVAR
  2
AcImDblStaticVar
  3
AcMeServices
 90
        0
280
     0
281
     0
  0
CLASS
  1
ACIMSTRSTATICVAR
  2
AcImStrStaticVar
  3
AcMeServices
 90
        0
280
     0
281
     0
  0
CLASS
  1
ACIMINTSTATICVAR
  2
AcImIntStaticVar
  3
AcMeServices
 90
        0
280
     0
281
     0
  0
CLASS
  1
ACASGREFMASTER
  2
AcAsGrefMaster
  3
AutoSurfResolverServices
 90
        0
280
     0
281
     0
  0
CLASS
  1
ACADGREFMODULE
  2
AcAdGrefModule
  3
AdGrefServices
 90
        0
280
     0
281
     0
  0
CLASS
  1
AMDTMAPISURFMOUDULE
  2
AmdtMApiSurfModule
  3
MApiSurfServices
 90
        0
280
     0
281
     0
  0
CLASS
  1
MAPIAMMOUDLE
  2
MApiAmModule
  3
MApiAmServices
 90
        0
280
     0
281
     0
  0
CLASS
  1
AMDTADMENUSTATE
  2
AmdtAdMenuState
  3
DesignerServices
 90
        0
280
     0
281
     0
  0
CLASS
  1
ADAPPL
  2
AcAdAppl
  3
DesignerServices
 90
        0
280
     0
281
     0
  0
CLASS
  1
DEPMGR
  2
AcAdDepMgr
  3
DesignerServices
 90
        0
280
     0
281
     0
  0
CLASS
  1
PARAMMGR
  2
AcAdParamMgr
  3
DesignerServices
 90
        0
280
     0
281
     0
  0
CLASS
  1
PARAMSCOPE
  2
AcAdParamScope
  3
DesignerServices
 90
        0
280
     0
281
     0
  0
CLASS
  1
NAMEDAPPL
  2
AcAdNamedAppl
  3
DesignerServices
 90
        0
280
     0
281
     0
  0
CLASS
  1
AMDTDMMENUSTATE
  2
AmdtDmMenuState
  3
AcMechDwgViewMgmt
 90
        0
280
     0
281
     0
  0
CLASS
  1
MAPIADMODULE
  2
MApiAdModule
  3
MApiAdServices
 90
        0
280
     0
281
     0
  0
CLASS
  1
AMDTAMMENUSTATE
  2
AmdtAmMenuState
  3
DesignerAssemblies
 90
        0
280
     0
281
     0
  0
CLASS
  1
ACAMPROJECT
  2
AcAmProject
  3
DesignerAssemblies
 90
        0
280
     0
281
     0
  0
CLASS
  1
ACAMGRCOMPDEF
  2
AcAmGrCompDef
  3
DesignerAssemblies
 90
        0
280
     0
281
     0
  0
CLASS
  1
ACCMCONTEXT
  2
AcCmContext
  3
DesignerAssemblies
 90
        0
280
     0
281
     0
  0
CLASS
  1
ACAMCOMPDEF
  2
AcAmCompDef
  3
DesignerAssemblies
 90
        0
280
     0
281
     0
  0
CLASS
  1
ACAMCOMPDEFMGR
  2
AcAmCompDefMgr
  3
DesignerAssemblies
 90
        0
280
     0
281
     0
  0
CLASS
  1
AMCONTEXTMGR
  2
AcAmContextMgr
  3
DesignerAssemblies
 90
        0
280
     0
281
     0
  0
CLASS
  1
ACAMCONTEXTMODELER
  2
AcAmContextModeler
  3
DesignerAssemblies
 90
        0
280
     0
281
     0
  0
CLASS
  1
ACMDATADICTIONARY
  2
AcmDataDictionary
  3
"AcmSymBB|Product Description: AutoCAD Mechanical 2000|Company: Autodesk"
 90
        0
280
     0
281
     0
  0
CLASS
  1
ACMDATAENTRYBLOCK
  2
AcmDataEntryBlock
  3
"AcmSymBB|Product Description: AutoCAD Mechanical 2000|Company: Autodesk"
 90
        0
280
     0
281
     0
  0
CLASS
  1
CATALOGSTATE
  2
AcAmCatalogState
  3
DesignerAssemblies
 90
        0
280
     0
281
     0
  0
CLASS
  1
ACAMGRCOMPDEFSET
  2
AcAmGrCompDefSet
  3
DesignerAssemblies
 90
        0
280
     0
281
     0
  0
CLASS
  1
AMDTBROWSERDBTAB
  2
AmdtBrowserDbTab
  3
McadcomServices
 90
        0
280
     0
281
     0
  0
CLASS
  1
CBROWSERAPPOBJECT
  2
CBrowserAppObject
  3
McadcomServices
 90
        0
280
     0
281
     0
  0
CLASS
  1
DM_PLACEHOLDER
  2
AcDmSelsetPlaceholder
  3
AcMechDwgViewMgmt
 90
        0
280
     0
281
     0
  0
CLASS
  1
ACMSTANDARDISO
  2
AcmStandardISO
  3
"Amdt_StdImp|Product Description: AutoCAD Mechanical 2000|Company: Autodesk"
 90
        0
280
     0
281
     0
  0
CLASS
  1
AMGOBJPROPCFG
  2
AmgObjPropCfg
  3
"AmgLay|Product Description: AutoCAD Mechanical 2000|Company: Autodesk"
 90
        1
280
     0
281
     0
  0
CLASS
  1
AMDTEDGESTANDARDISO
  2
AmdtEdgeStdISO
  3
"Amdt_StdImp|Product Description: AutoCAD Mechanical 2000|Company: Autodesk"
 90
        0
280
     0
281
     0
  0
CLASS
  1
ACMSURFSTANDARDISO
  2
AcmSurfTextStdISO
  3
"Amdt_StdImp|Product Description: AutoCAD Mechanical 2000|Company: Autodesk"
 90
        0
280
     0
281
     0
  0
CLASS
  1
ACMFCFSTANDARDISO
  2
AcmFCFStdISO
  3
"Amdt_StdImp|Product Description: AutoCAD Mechanical 2000|Company: Autodesk"
 90
        0
280
     0
281
     0
  0
CLASS
  1
ACMWELDSTANDARDISO
  2
AcmWeldingStdISO
  3
"Amdt_StdImp|Product Description: AutoCAD Mechanical 2000|Company: Autodesk"
 90
        0
280
     0
281
     0
  0
CLASS
  1
ACMIDSTANDARDISO
  2
AcmIdStdISO
  3
"Amdt_StdImp|Product Description: AutoCAD Mechanical 2000|Company: Autodesk"
 90
        0
280
     0
281
     0
  0
CLASS
  1
ACMDATUMSTANDARDISO
  2
AcmDatumStdISO
  3
"Amdt_StdImp|Product Description: AutoCAD Mechanical 2000|Company: Autodesk"
 90
        0
280
     0
281
     0
  0
CLASS
  1
ACMBOMSTANDARDISO
  2
AcmBOMStdISO
  3
"Amdt_StdImp|Product Description: AutoCAD Mechanical 2000|Company: Autodesk"
 90
        0
280
     0
281
     0
  0
CLASS
  1
ACMDETAILSTANDARDISO
  2
AmdtDetailSymStdISO
  3
"Amdt_StdImp|Product Description: AutoCAD Mechanical 2000|Company: Autodesk"
 90
        0
280
     0
281
     0
  0
CLASS
  1
ACMSECTIONSTANDARDISO
  2
AmdtSectionSymStdISO
  3
"Amdt_StdImp|Product Description: AutoCAD Mechanical 2000|Company: Autodesk"
 90
        0
280
     0
281
     0
  0
CLASS
  1
ACMCENTERLINESTANDARDISO
  2
AmdtCenterLineStdISO
  3
"Amdt_StdImp|Product Description: AutoCAD Mechanical 2000|Company: Autodesk"
 90
        0
280
     0
281
     0
  0
CLASS
  1
ACMTHREADLINESTANDARDISO
  2
AmdtThreadLineStdISO
  3
"Amdt_StdImp|Product Description: AutoCAD Mechanical 2000|Company: Autodesk"
 90
        0
280
     0
281
     0
  0
CLASS
  1
ACMNOTESTANDARDISO
  2
AmdtNoteStdISO
  3
"Amdt_StdImp|Product Description: AutoCAD Mechanical 2000|Company: Autodesk"
 90
        0
280
     0
281
     0
  0
CLASS
  1
ACAMGLAYSTD
  2
AcAmgLayStd
  3
"AcAmgLayStd|Product Description: AutoCAD Mechanical 2000|Company: Autodesk"
 90
        0
280
     0
281
     0
  0
CLASS
  1
ACAMGDIMSTD
  2
AcAmgDimStd
  3
"AcAmgDimStd|Product Description: AutoCAD Mechanical 2000|Company: Autodesk"
 90
        0
280
     0
281
     0
  0
CLASS
  1
ACAMGHOLECHARTSTDISO
  2
AcAmgHoleChartStdISO
  3
ACMSYMBB_MODULE_NAME
 90
        0
280
     0
281
     0
  0
CLASS
  1
ACAMGTITLESTD
  2
AcAmgTitleStd
  3
"TITLEAPP"
 90
        0
280
     0
281
     0
  0
CLASS
  1
LAYER_INDEX
  2
AcDbLayerIndex
  3
AutoCAD 2000
 90
        0
280
     0
281
     0
  0
CLASS
  1
IDBUFFER
  2
AcDbIdBuffer
  3
AutoCAD 2000
 90
        0
280
     0
281
     0
  0
CLASS
  1
ACAMGFILTERDAT
  2
AcAmgFilterDat
  3
"AcadM|Product Description: AutoCAD Mechanical 2000|Company: Autodesk"
 90
        0
280
     0
281
     0
  0
ENDSEC
  0
SECTION
  2
TABLES
  0
TABLE
  2
VPORT
  5
8
330
0
100
AcDbSymbolTable
 70
     5
  0
VPORT
  5
56F
330
8
100
AcDbSymbolTableRecord
100
AcDbViewportTableRecord
  2
*Active
 70
     0
 10
0.0
 20
0.0
 11
1.0
 21
1.0
 12
254.9317320619865
 22
339.9955364443857
 13
0.0
 23
0.0
 14
10.0
 24
10.0
 15
5.0
 25
5.0
 16
0.0
 26
0.0
 36
1.0
 17
0.0
 27
0.0
 37
0.0
 40
997.6245821773488
 41
1.252163164400494
 42
50.0
 43
0.0
 44
0.0
 50
0.0
 51
0.0
 71
     0
 72
   100
 73
     1
 74
     3
 75
     0
 76
     0
 77
     0
 78
     0
281
     0
 65
     1
110
0.0
120
0.0
130
0.0
111
1.0
121
0.0
131
0.0
112
0.0
122
1.0
132
0.0
 79
     0
146
0.0
  0
ENDTAB
  0
TABLE
  2
LTYPE
  5
5
330
0
100
AcDbSymbolTable
 70
    16
  0
LTYPE
  5
14
330
5
100
AcDbSymbolTableRecord
100
AcDbLinetypeTableRecord
  2
ByBlock
 70
     0
  3

 72
    65
 73
     0
 40
0.0
  0
LTYPE
  5
15
330
5
100
AcDbSymbolTableRecord
100
AcDbLinetypeTableRecord
  2
ByLayer
 70
     0
  3

 72
    65
 73
     0
 40
0.0
  0
LTYPE
  5
16
330
5
100
AcDbSymbolTableRecord
100
AcDbLinetypeTableRecord
  2
Continuous
 70
     0
  3
Solid line
 72
    65
 73
     0
 40
0.0
  0
LTYPE
  5
483
330
5
100
AcDbSymbolTableRecord
100
AcDbLinetypeTableRecord
  2
HIDDEN
 70
     0
  3
Hidden __ __ __ __ __ __ __ __ __ __ __ __ __ _
 72
    65
 73
     2
 40
9.524999999999998
 49
6.349999999999999
 74
     0
 49
-3.174999999999999
 74
     0
  0
LTYPE
  5
484
330
5
100
AcDbSymbolTableRecord
100
AcDbLinetypeTableRecord
  2
PHANTOM2
 70
     0
  3
Phantom (.5x) ___ _ _ ___ _ _ ___ _ _ ___ _ _
 72
    65
 73
     6
 40
31.75
 49
15.875
 74
     0
 49
-3.174999999999999
 74
     0
 49
3.174999999999999
 74
     0
 49
-3.174999999999999
 74
     0
 49
3.174999999999999
 74
     0
 49
-3.174999999999999
 74
     0
  0
LTYPE
  5
485
330
5
100
AcDbSymbolTableRecord
100
AcDbLinetypeTableRecord
  2
CENTER
 70
     0
  3
Center ____ _ ____ _ ____ _ ____ _ ____ _ ____
 72
    65
 73
     4
 40
50.8
 49
31.75
 74
     0
 49
-6.349999999999999
 74
     0
 49
6.349999999999999
 74
     0
 49
-6.349999999999999
 74
     0
  0
LTYPE
  5
4EE
330
5
100
AcDbSymbolTableRecord
100
AcDbLinetypeTableRecord
  2
ASULTYPE
 70
     0
  3
Solid line
 72
    65
 73
     2
 40
3.0
 49
2.5
 74
     0
 49
0.5
 74
     0
  0
LTYPE
  5
4EF
330
5
100
AcDbSymbolTableRecord
100
AcDbLinetypeTableRecord
  2
ASVLTYPE
 70
     0
  3
__ __ __ __ __ __ __ __ __ __ __ __ __ __ __ __ __ __ __ __ __
 72
    65
 73
     2
 40
0.75
 49
0.5
 74
     0
 49
-0.25
 74
     0
  0
LTYPE
  5
533
330
5
100
AcDbSymbolTableRecord
100
AcDbLinetypeTableRecord
  2
AM_ISO02W050
 70
     0
  3
__ __ __ __ __ __ __ __ __ __ __ __ __ __ __
 72
    65
 73
     2
 40
7.5
 49
6.0
 74
     0
 49
-1.5
 74
     0
  0
LTYPE
  5
534
330
5
100
AcDbSymbolTableRecord
100
AcDbLinetypeTableRecord
  2
AM_ISO08W050
 70
     0
  3
____ . ____ . ____ . ____ . ____ . ____ . ____
 72
    65
 73
     4
 40
18.0
 49
12.0
 74
     0
 49
-1.5
 74
     0
 49
3.0
 74
     0
 49
-1.5
 74
     0
  0
LTYPE
  5
535
330
5
100
AcDbSymbolTableRecord
100
AcDbLinetypeTableRecord
  2
AM_ISO09W050
 70
     0
  3
_____ . . _____ . . _____ . . ____ .. ____
 72
    65
 73
     6
 40
22.5
 49
12.0
 74
     0
 49
-1.5
 74
     0
 49
3.0
 74
     0
 49
-1.5
 74
     0
 49
3.0
 74
     0
 49
-1.5
 74
     0
  0
LTYPE
  5
536
330
5
100
AcDbSymbolTableRecord
100
AcDbLinetypeTableRecord
  2
Amconstr
 70
     0
  3
_______________________
 72
    65
 73
     2
 40
9999.0
 49
9999.0
 74
     0
 49
0.0
 74
     0
  0
LTYPE
  5
537
330
5
100
AcDbSymbolTableRecord
100
AcDbLinetypeTableRecord
  2
AM_ISO08W050x2
 70
     0
  3
__ . __ . __ . __ . __ . __
 72
    65
 73
     4
 40
9.0
 49
6.0
 74
     0
 49
-0.75
 74
     0
 49
1.5
 74
     0
 49
-0.75
 74
     0
  0
LTYPE
  5
538
330
5
100
AcDbSymbolTableRecord
100
AcDbLinetypeTableRecord
  2
AM_ISO02W050x2
 70
     0
  3
 _ _ _ _ _ _ _ _ _ _ _ _
 72
    65
 73
     2
 40
3.75
 49
3.0
 74
     0
 49
-0.75
 74
     0
  0
LTYPE
  5
53B
330
5
100
AcDbSymbolTableRecord
100
AcDbLinetypeTableRecord
  2
Amzigzag
 70
     0
  3
/\/-/\/-/\/-/\/-/\/-/\/
 72
    65
 73
     2
 40
11.00009999999999
 49
0.0001
 74
     4
 75
   135
340
53A
 46
0.04
 50
0.0
 44
0.0
 45
0.0
 49
-11.0
 74
     0
  0
LTYPE
  5
54A
330
5
100
AcDbSymbolTableRecord
100
AcDbLinetypeTableRecord
  2
ACISOWELD
 70
     0
  3
_ _ _ _ _
 72
    65
 73
     2
 40
2.0
 49
2.0
 74
     0
 49
-1.0
 74
     0
  0
LTYPE
  5
54B
330
5
100
AcDbSymbolTableRecord
100
AcDbLinetypeTableRecord
  2
ACISOTGB
 70
     0
  3
__ . . __ . .
 72
    65
 73
     6
 40
9.0
 49
4.0
 74
     0
 49
-1.0
 74
     0
 49
1.0
 74
     0
 49
-1.0
 74
     0
 49
1.0
 74
     0
 49
-1.0
 74
     0
  0
LTYPE
  5
54C
330
5
100
AcDbSymbolTableRecord
100
AcDbLinetypeTableRecord
  2
ACISOTGL
 70
     0
  3
_ _ _ _ _
 72
    65
 73
     2
 40
3.0
 49
2.0
 74
     0
 49
-1.0
 74
     0
  0
ENDTAB
  0
TABLE
  2
LAYER
  5
2
330
0
100
AcDbSymbolTable
 70
     2
  0
LAYER
  5
10
330
2
100
AcDbSymbolTableRecord
100
AcDbLayerTableRecord
  2
0
 70
     0
 62
     7
  6
Continuous
370
    -3
390
F
  0
LAYER
  5
24A
330
2
100
AcDbSymbolTableRecord
100
AcDbLayerTableRecord
  2
ventanas
 70
     0
 62
    -7
  6
Continuous
370
    -3
390
F
  0
ENDTAB
  0
TABLE
  2
STYLE
  5
3
330
0
100
AcDbSymbolTable
 70
     4
  0
STYLE
  5
11
330
3
100
AcDbSymbolTableRecord
100
AcDbTextStyleTableRecord
  2
Standard
 70
     0
 40
0.0
 41
1.0
 50
0.0
 71
     0
 42
2.5
  3
txt
  4

  0
STYLE
  5
53A
330
3
100
AcDbSymbolTableRecord
100
AcDbTextStyleTableRecord
  2

 70
     1
 40
0.0
 41
1.0
 50
0.0
 71
     0
 42
2.5
  3
ltypeshp.shx
  4

  0
STYLE
  5
53C
330
3
100
AcDbSymbolTableRecord
100
AcDbTextStyleTableRecord
  2
ACISOTS
 70
     0
 40
1.0
 41
1.0
 50
0.0
 71
     0
 42
2.5
  3
isocp.shx
  4

  0
STYLE
  5
549
330
3
100
AcDbSymbolTableRecord
100
AcDbTextStyleTableRecord
  2
ACISOGDT
 70
     0
 40
0.0
 41
1.0
 50
0.0
 71
     0
 42
2.5
  3
amgdt.shx
  4

  0
ENDTAB
  0
TABLE
  2
VIEW
  5
6
330
0
100
AcDbSymbolTable
 70
     0
  0
ENDTAB
  0
TABLE
  2
UCS
  5
7
330
0
100
AcDbSymbolTable
 70
     0
  0
ENDTAB
  0
TABLE
  2
APPID
  5
9
330
0
100
AcDbSymbolTable
 70
    16
  0
APPID
  5
12
330
9
100
AcDbSymbolTableRecord
100
AcDbRegAppTableRecord
  2
ACAD
 70
     0
  0
APPID
  5
464
330
9
100
AcDbSymbolTableRecord
100
AcDbRegAppTableRecord
  2
MCAD_NO_VIS
 70
     0
  0
APPID
  5
465
330
9
100
AcDbSymbolTableRecord
100
AcDbRegAppTableRecord
  2
ACAD_TEMP_GRAPHIC
 70
     0
  0
APPID
  5
49A
330
9
100
AcDbSymbolTableRecord
100
AcDbRegAppTableRecord
  2
AD_DRAW
 70
     0
  0
APPID
  5
49D
330
9
100
AcDbSymbolTableRecord
100
AcDbRegAppTableRecord
  2
ACATTRIBSERVICES
 70
     0
  0
APPID
  5
4A5
330
9
100
AcDbSymbolTableRecord
100
AcDbRegAppTableRecord
  2
GENIUS_GENDIM_13
 70
     0
  0
APPID
  5
4A6
330
9
100
AcDbSymbolTableRecord
100
AcDbRegAppTableRecord
  2
GENIUS_GENDTOL_13
 70
     0
  0
APPID
  5
4A7
330
9
100
AcDbSymbolTableRecord
100
AcDbRegAppTableRecord
  2
GENIUS_GE3DTOL_13
 70
     0
  0
APPID
  5
4F0
330
9
100
AcDbSymbolTableRecord
100
AcDbRegAppTableRecord
  2
ASURF_PCURVE_APPNAME
 70
     0
  0
APPID
  5
4F5
330
9
100
AcDbSymbolTableRecord
100
AcDbRegAppTableRecord
  2
AMG_3D2D_5.0
 70
     0
  0
APPID
  5
520
330
9
100
AcDbSymbolTableRecord
100
AcDbRegAppTableRecord
  2
DESIGNERASSEMBLIES
 70
     0
  0
APPID
  5
528
330
9
100
AcDbSymbolTableRecord
100
AcDbRegAppTableRecord
  2
ACADM_DIM_EDIT
 70
     0
  0
APPID
  5
529
330
9
100
AcDbSymbolTableRecord
100
AcDbRegAppTableRecord
  2
AMDT_DM_ADJ
 70
     0
  0
APPID
  5
55D
330
9
100
AcDbSymbolTableRecord
100
AcDbRegAppTableRecord
  2
GENIUS_GENSCREG_15
 70
     0
  0
APPID
  5
55E
330
9
100
AcDbSymbolTableRecord
100
AcDbRegAppTableRecord
  2
GENIUS_GENOBJ-N-SDF_13
 70
     0
  0
APPID
  5
55F
330
9
100
AcDbSymbolTableRecord
100
AcDbRegAppTableRecord
  2
GENIUS_GENODEF_13
 70
     0
  0
ENDTAB
  0
TABLE
  2
DIMSTYLE
  5
A
330
0
100
AcDbSymbolTable
 70
     8
100
AcDbDimStyleTable
 71
     0
  0
DIMSTYLE
105
27
330
A
100
AcDbSymbolTableRecord
100
AcDbDimStyleTableRecord
  2
ISO-25
 70
     0
 41
2.5
 42
0.625
 43
3.75
 44
1.25
 73
     0
 74
     0
 77
     1
 78
     8
140
2.5
141
2.5
143
0.03937007874016
147
0.625
171
     3
172
     1
271
     2
272
     2
274
     3
278
    44
283
     0
284
     8
340
11
  0
DIMSTYLE
105
550
330
A
100
AcDbSymbolTableRecord
100
AcDbDimStyleTableRecord
  2
AM_ISO
 70
     0
  4
"
 41
2.5
 42
1.0
 43
10.0
 44
1.0
 47
0.1
 48
0.1
 73
     0
 74
     0
 77
     1
 78
     8
 79
     2
140
3.5
141
0.0
143
0.0393701
146
0.71
147
1.5
172
     1
176
   256
177
   256
178
     2
271
     2
272
     3
274
     4
283
     0
284
     8
340
11
371
    -1
372
    -1
  0
DIMSTYLE
105
551
330
A
100
AcDbSymbolTableRecord
100
AcDbDimStyleTableRecord
  2
AM_ISO$3
 70
     0
  4
"
 41
2.5
 42
1.0
 43
10.0
 44
1.0
 47
0.1
 48
0.1
 73
     0
 77
     1
 78
     8
 79
     2
140
3.5
141
0.0
143
0.0393701
146
0.71
147
1.5
176
   256
177
   256
178
     2
271
     2
272
     3
274
     4
283
     0
284
     8
288
     1
289
     0
340
11
371
    -1
372
    -1
  0
DIMSTYLE
105
552
330
A
100
AcDbSymbolTableRecord
100
AcDbDimStyleTableRecord
  2
AM_ISO$4
 70
     0
  4
"
 41
2.5
 42
1.0
 43
10.0
 44
1.0
 47
0.1
 48
0.1
 73
     0
 77
     1
 78
     8
 79
     2
140
3.5
141
0.0
143
0.0393701
146
0.71
147
1.5
176
   256
177
   256
178
     2
271
     2
272
     3
274
     4
283
     0
284
     8
288
     1
289
     0
340
11
371
    -1
372
    -1
  0
DIMSTYLE
105
553
330
A
100
AcDbSymbolTableRecord
100
AcDbDimStyleTableRecord
  2
AM_ISO$6
 70
     0
  4
"
 41
2.5
 42
1.0
 43
10.0
 44
1.0
 47
0.1
 48
0.1
 73
     0
 74
     0
 78
     8
 79
     2
140
3.5
141
0.0
143
0.0393701
146
0.71
147
1.5
172
     1
176
   256
177
   256
178
     2
271
     2
272
     3
274
     4
283
     0
284
     8
340
11
371
    -1
372
    -1
  0
DIMSTYLE
105
554
330
A
100
AcDbSymbolTableRecord
100
AcDbDimStyleTableRecord
  2
AM_ISO$7
 70
     0
  4
"
 41
2.5
 42
1.0
 43
10.0
 44
1.0
 47
0.1
 48
0.1
 73
     0
 74
     0
 77
     1
 78
     8
 79
     2
140
5.0
141
0.0
143
0.0393701
146
0.71
147
1.5
172
     1
176
   256
177
   256
178
     2
271
     2
272
     3
274
     4
283
     0
284
     8
340
11
371
    -1
372
    -1
  0
DIMSTYLE
105
555
330
A
100
AcDbSymbolTableRecord
100
AcDbDimStyleTableRecord
  2
AM_ISO$SF
 70
     0
  4
"
 41
2.5
 42
1.0
 43
10.0
 44
1.0
 47
0.1
 48
0.1
 73
     0
 74
     0
 75
     1
 76
     1
 77
     1
 78
     8
 79
     2
140
3.5
141
0.0
143
0.0393701
146
0.71
147
1.5
172
     1
176
   256
177
   256
178
     2
271
     2
272
     3
274
     4
283
     0
284
     8
340
11
371
    -1
372
    -1
  0
DIMSTYLE
105
55A
330
A
100
AcDbSymbolTableRecord
100
AcDbDimStyleTableRecord
  2
AM_ISO$SH
 70
     0
  4
"
 41
2.5
 42
1.0
 43
10.0
 44
1.0
 47
0.1
 48
0.1
 73
     0
 74
     0
 75
     1
 76
     1
 77
     1
 78
     8
 79
     2
140
3.5
141
0.0
143
0.0393701
144
2.0
146
0.71
147
1.5
172
     1
173
     1
176
   256
177
   256
178
     2
271
     2
272
     3
274
     4
283
     0
284
     8
340
11
343
556
371
    -1
372
    -1
  0
ENDTAB
  0
TABLE
  2
BLOCK_RECORD
  5
1
330
0
100
AcDbSymbolTable
 70
     9
  0
BLOCK_RECORD
  5
1F
102
{ACAD_XDICTIONARY
360
24E
102
}
330
1
100
AcDbSymbolTableRecord
100
AcDbBlockTableRecord
  2
*Model_Space
340
22
  0
BLOCK_RECORD
  5
23
330
1
100
AcDbSymbolTableRecord
100
AcDbBlockTableRecord
  2
*Paper_Space
340
26
  0
BLOCK_RECORD
  5
1B
330
1
100
AcDbSymbolTableRecord
100
AcDbBlockTableRecord
  2
*Paper_Space0
340
1E
  0
BLOCK_RECORD
  5
47
330
1
100
AcDbSymbolTableRecord
100
AcDbBlockTableRecord
  2
A$C74B9672B
340
0
  0
BLOCK_RECORD
  5
56
330
1
100
AcDbSymbolTableRecord
100
AcDbBlockTableRecord
  2
A$C66B558EB
340
0
  0
BLOCK_RECORD
  5
8A
330
1
100
AcDbSymbolTableRecord
100
AcDbBlockTableRecord
  2
A$C153575E0
340
0
  0
BLOCK_RECORD
  5
A5
330
1
100
AcDbSymbolTableRecord
100
AcDbBlockTableRecord
  2
A$C149A41A8
340
0
  0
BLOCK_RECORD
  5
141
330
1
100
AcDbSymbolTableRecord
100
AcDbBlockTableRecord
  2
A$C43C06514
340
0
  0
BLOCK_RECORD
  5
414
330
1
100
AcDbSymbolTableRecord
100
AcDbBlockTableRecord
  2
DVIEWBLOCK
340
0
  0
BLOCK_RECORD
  5
517
330
1
100
AcDbSymbolTableRecord
100
AcDbBlockTableRecord
  2
*U7
340
0
  0
BLOCK_RECORD
  5
556
330
1
100
AcDbSymbolTableRecord
100
AcDbBlockTableRecord
  2
GENAXEH
340
0
  0
ENDTAB
  0
ENDSEC
  0
SECTION
  2
BLOCKS
  0
BLOCK
  5
20
330
1F
100
AcDbEntity
  8
0
100
AcDbBlockBegin
  2
*Model_Space
 70
     0
 10
0.0
 20
0.0
 30
0.0
  3
*Model_Space
  1

  0
ENDBLK
  5
21
330
1F
100
AcDbEntity
  8
0
100
AcDbBlockEnd
  0
BLOCK
  5
24
330
23
100
AcDbEntity
 67
     1
  8
0
100
AcDbBlockBegin
  2
*Paper_Space
 70
     0
 10
0.0
 20
0.0
 30
0.0
  3
*Paper_Space
  1

  0
ENDBLK
  5
25
330
23
100
AcDbEntity
 67
     1
  8
0
100
AcDbBlockEnd
  0
BLOCK
  5
1C
330
1B
100
AcDbEntity
  8
0
100
AcDbBlockBegin
  2
*Paper_Space0
 70
     0
 10
0.0
 20
0.0
 30
0.0
  3
*Paper_Space0
  1

  0
VIEWPORT
  5
247
102
{ACAD_XDICTIONARY
360
454
102
}
330
1B
100
AcDbEntity
  8
0
 62
    51
100
AcDbViewport
 10
120.2519215065569
 20
240.0853138734043
 30
0.0
 40
656.6091465852272
 41
524.3798613893867
 69
     1
 12
120.2519215065569
 22
240.0853138734043
 13
0.0
 23
0.0
 14
10.0
 24
10.0
 15
10.0
 25
10.0
 16
0.0
 26
0.0
 36
1.0
 17
0.0
 27
0.0
 37
0.0
 42
50.0
 43
0.0
 44
0.0
 45
524.3798613893867
 50
0.0
 51
0.0
 72
   100
 90
    32800
  1

281
     0
 71
     1
 74
     0
110
0.0
120
0.0
130
0.0
111
1.0
121
0.0
131
0.0
112
0.0
122
1.0
132
0.0
 79
     0
146
0.0
1001
GENIUS_GENSCREG_15
1000
PF
1040
1.0
1000
DF
1040
1.0
1000
MIN
1011
-208.0526517860566
1021
-22.10461682128902
1031
0.0
1000
MAX
1011
448.5564947991703
1021
396.7014478403378
1031
0.0
1000
FLAGS
1070
     4
1001
GENIUS_GENOBJ-N-SDF_13
1002
{
1000
OWNER
1000
GEN
1002
}
1001
GENIUS_GENODEF_13
1002
{
1000
HIER
1070
     0
1002
}
1002
{
1000
MANEDIT
1070
     0
1002
}
1002
{
1000
NOSEL
1070
     0
1002
}
1002
{
1000
BEHIND
1070
     0
1002
}
1002
{
1000
OTHER
1070
     0
1002
}
1002
{
1000
REACTOR
1002
}
  0
VIEWPORT
  5
249
102
{ACAD_XDICTIONARY
360
456
102
}
330
1B
100
AcDbEntity
  8
ventanas
 62
    51
100
AcDbViewport
 10
100.7009216601031
 20
137.186002409026
 30
0.0
 40
204.7790639817526
 41
279.9461389798178
 69
     2
 12
50.00701983460112
 22
125.0023047413005
 13
0.0
 23
0.0
 14
10.0
 24
10.0
 15
5.0
 25
5.0
 16
0.0
 26
0.0
 36
1.0
 17
0.0
 27
0.0
 37
0.0
 42
50.0
 43
0.0
 44
0.0
 45
279.9461389798178
 50
0.0
 51
0.0
 72
   100
 90
    32864
  1

281
     0
 71
     1
 74
     0
110
0.0
120
0.0
130
0.0
111
1.0
121
0.0
131
0.0
112
0.0
122
1.0
132
0.0
 79
     0
146
0.0
1001
GENIUS_GENSCREG_15
1000
PF
1040
1.0
1000
DF
1040
1.0
1000
MIN
1011
-1.688610330773144
1021
-2.787067080882934
1031
0.0
1000
MAX
1011
203.0904536509794
1021
277.1590718989349
1031
0.0
1000
FLAGS
1070
     4
1001
GENIUS_GENOBJ-N-SDF_13
1002
{
1000
OWNER
1000
GEN
1002
}
1001
GENIUS_GENODEF_13
1002
{
1000
HIER
1070
     0
1002
}
1002
{
1000
MANEDIT
1070
     0
1002
}
1002
{
1000
NOSEL
1070
     0
1002
}
1002
{
1000
BEHIND
1070
     0
1002
}
1002
{
1000
OTHER
1070
     0
1002
}
1002
{
1000
REACTOR
1002
}
  0
ENDBLK
  5
1D
330
1B
100
AcDbEntity
  8
0
100
AcDbBlockEnd
  0
BLOCK
  5
53
330
47
100
AcDbEntity
  8
0
100
AcDbBlockBegin
  2
A$C74B9672B
 70
     0
 10
0.0
 20
0.0
 30
0.0
  3
A$C74B9672B
  1

  0
LWPOLYLINE
  5
48
330
47
100
AcDbEntity
  8
0
100
AcDbPolyline
 90
        4
 70
     1
 43
0.0
 10
0.0
 20
0.0
 10
50.0
 20
0.0
 10
50.0
 20
50.0
 10
0.0
 20
50.0
  0
LINE
  5
49
330
47
100
AcDbEntity
  8
0
100
AcDbLine
 10
5.0
 20
0.0
 30
0.0
 11
5.0
 21
5.0
 31
0.0
  0
LINE
  5
4A
330
47
100
AcDbEntity
  8
0
100
AcDbLine
 10
29.99999966859104
 20
0.0
 30
0.0
 11
29.99999966859104
 21
5.0
 31
0.0
  0
LINE
  5
4B
330
47
100
AcDbEntity
  8
0
100
AcDbLine
 10
34.99999966859104
 20
0.0
 30
0.0
 11
34.99999966859104
 21
5.0
 31
0.0
  0
LINE
  5
4C
330
47
100
AcDbEntity
  8
0
100
AcDbLine
 10
24.99999966859104
 20
0.0
 30
0.0
 11
24.99999966859104
 21
5.0
 31
0.0
  0
LINE
  5
4D
330
47
100
AcDbEntity
  8
0
100
AcDbLine
 10
25.0
 20
0.0
 30
0.0
 11
25.0
 21
5.0
 31
0.0
  0
LINE
  5
4E
330
47
100
AcDbEntity
  8
0
100
AcDbLine
 10
20.0
 20
0.0
 30
0.0
 11
20.0
 21
5.0
 31
0.0
  0
LINE
  5
4F
330
47
100
AcDbEntity
  8
0
100
AcDbLine
 10
15.0
 20
0.0
 30
0.0
 11
15.0
 21
5.0
 31
0.0
  0
LINE
  5
50
330
47
100
AcDbEntity
  8
0
100
AcDbLine
 10
10.0
 20
0.0
 30
0.0
 11
10.0
 21
5.0
 31
0.0
  0
LINE
  5
51
330
47
100
AcDbEntity
  8
0
100
AcDbLine
 10
39.99999966859104
 20
0.0
 30
0.0
 11
39.99999966859104
 21
5.0
 31
0.0
  0
LINE
  5
52
330
47
100
AcDbEntity
  8
0
100
AcDbLine
 10
44.99999966859104
 20
0.0
 30
0.0
 11
44.99999966859104
 21
5.0
 31
0.0
  0
ENDBLK
  5
54
330
47
100
AcDbEntity
  8
0
100
AcDbBlockEnd
  0
BLOCK
  5
61
330
56
100
AcDbEntity
  8
0
100
AcDbBlockBegin
  2
A$C66B558EB
 70
     0
 10
0.0
 20
0.0
 30
0.0
  3
A$C66B558EB
  1

  0
LINE
  5
57
330
56
100
AcDbEntity
  8
0
100
AcDbLine
 10
-0.0000003314089554
 20
0.0
 30
0.0
 11
-0.0000003314089554
 21
5.0
 31
0.0
  0
LINE
  5
58
330
56
100
AcDbEntity
  8
0
100
AcDbLine
 10
24.99999933718209
 20
0.0
 30
0.0
 11
24.99999933718209
 21
5.0
 31
0.0
  0
LINE
  5
59
330
56
100
AcDbEntity
  8
0
100
AcDbLine
 10
29.99999933718209
 20
0.0
 30
0.0
 11
29.99999933718209
 21
5.0
 31
0.0
  0
LINE
  5
5A
330
56
100
AcDbEntity
  8
0
100
AcDbLine
 10
19.99999933718209
 20
0.0
 30
0.0
 11
19.99999933718209
 21
5.0
 31
0.0
  0
LINE
  5
5B
330
56
100
AcDbEntity
  8
0
100
AcDbLine
 10
19.99999966859104
 20
0.0
 30
0.0
 11
19.99999966859104
 21
5.0
 31
0.0
  0
LINE
  5
5C
330
56
100
AcDbEntity
  8
0
100
AcDbLine
 10
14.99999966859104
 20
0.0
 30
0.0
 11
14.99999966859104
 21
5.0
 31
0.0
  0
LINE
  5
5D
330
56
100
AcDbEntity
  8
0
100
AcDbLine
 10
9.999999668591044
 20
0.0
 30
0.0
 11
9.999999668591044
 21
5.0
 31
0.0
  0
LINE
  5
5E
330
56
100
AcDbEntity
  8
0
100
AcDbLine
 10
4.999999668591044
 20
0.0
 30
0.0
 11
4.999999668591044
 21
5.0
 31
0.0
  0
LINE
  5
5F
330
56
100
AcDbEntity
  8
0
100
AcDbLine
 10
34.99999933718209
 20
0.0
 30
0.0
 11
34.99999933718209
 21
5.0
 31
0.0
  0
LINE
  5
60
330
56
100
AcDbEntity
  8
0
100
AcDbLine
 10
39.99999933718209
 20
0.0
 30
0.0
 11
39.99999933718209
 21
5.0
 31
0.0
  0
ENDBLK
  5
62
330
56
100
AcDbEntity
  8
0
100
AcDbBlockEnd
  0
BLOCK
  5
96
330
8A
100
AcDbEntity
  8
0
100
AcDbBlockBegin
  2
A$C153575E0
 70
     0
 10
0.0
 20
0.0
 30
0.0
  3
A$C153575E0
  1

  0
LWPOLYLINE
  5
8B
330
8A
100
AcDbEntity
  8
0
100
AcDbPolyline
 90
        4
 70
     1
 43
0.0
 10
0.0
 20
0.0
 10
50.0
 20
0.0
 10
50.0
 20
50.0
 10
0.0
 20
50.0
  0
LINE
  5
8C
330
8A
100
AcDbEntity
  8
0
100
AcDbLine
 10
5.0
 20
0.0
 30
0.0
 11
5.0
 21
5.0
 31
0.0
  0
LINE
  5
8D
330
8A
100
AcDbEntity
  8
0
100
AcDbLine
 10
29.99999966859104
 20
0.0
 30
0.0
 11
29.99999966859104
 21
5.0
 31
0.0
  0
LINE
  5
8E
330
8A
100
AcDbEntity
  8
0
100
AcDbLine
 10
34.99999966859104
 20
0.0
 30
0.0
 11
34.99999966859104
 21
5.0
 31
0.0
  0
LINE
  5
8F
330
8A
100
AcDbEntity
  8
0
100
AcDbLine
 10
24.99999966859104
 20
0.0
 30
0.0
 11
24.99999966859104
 21
5.0
 31
0.0
  0
LINE
  5
90
330
8A
100
AcDbEntity
  8
0
100
AcDbLine
 10
25.0
 20
0.0
 30
0.0
 11
25.0
 21
5.0
 31
0.0
  0
LINE
  5
91
330
8A
100
AcDbEntity
  8
0
100
AcDbLine
 10
20.0
 20
0.0
 30
0.0
 11
20.0
 21
5.0
 31
0.0
  0
LINE
  5
92
330
8A
100
AcDbEntity
  8
0
100
AcDbLine
 10
15.0
 20
0.0
 30
0.0
 11
15.0
 21
5.0
 31
0.0
  0
LINE
  5
93
330
8A
100
AcDbEntity
  8
0
100
AcDbLine
 10
10.0
 20
0.0
 30
0.0
 11
10.0
 21
5.0
 31
0.0
  0
LINE
  5
94
330
8A
100
AcDbEntity
  8
0
100
AcDbLine
 10
39.99999966859104
 20
0.0
 30
0.0
 11
39.99999966859104
 21
5.0
 31
0.0
  0
LINE
  5
95
330
8A
100
AcDbEntity
  8
0
100
AcDbLine
 10
44.99999966859104
 20
0.0
 30
0.0
 11
44.99999966859104
 21
5.0
 31
0.0
  0
ENDBLK
  5
97
330
8A
100
AcDbEntity
  8
0
100
AcDbBlockEnd
  0
BLOCK
  5
B9
330
A5
100
AcDbEntity
  8
0
100
AcDbBlockBegin
  2
A$C149A41A8
 70
     0
 10
0.0
 20
0.0
 30
0.0
  3
A$C149A41A8
  1

  0
LWPOLYLINE
  5
A6
330
A5
100
AcDbEntity
  8
0
100
AcDbPolyline
 90
        4
 70
     1
 43
0.0
 10
0.0
 20
50.00000023050245
 10
50.0
 20
50.00000023050245
 10
50.0
 20
100.0000002305024
 10
0.0
 20
100.0000002305024
  0
LWPOLYLINE
  5
A7
330
A5
100
AcDbEntity
  8
0
100
AcDbPolyline
 90
        4
 70
     1
 43
0.0
 10
50.0
 20
50.00000023050245
 10
100.0
 20
50.00000023050245
 10
100.0
 20
0.0000002305024509
 10
50.0
 20
0.0000002305024509
  0
LINE
  5
A8
330
A5
100
AcDbEntity
  8
0
100
AcDbLine
 10
50.11088605295959
 20
6.160131863933088
 30
0.0
 11
50.11088605295959
 21
1.160131863933088
 31
0.0
  0
LINE
  5
A9
330
A5
100
AcDbEntity
  8
0
100
AcDbLine
 10
29.99999966859104
 20
50.00000023050245
 30
0.0
 11
29.99999966859104
 21
55.00000023050245
 31
0.0
  0
LINE
  5
AA
330
A5
100
AcDbEntity
  8
0
100
AcDbLine
 10
34.99999966859104
 20
50.00000023050245
 30
0.0
 11
34.99999966859104
 21
55.00000023050245
 31
0.0
  0
LINE
  5
AB
330
A5
100
AcDbEntity
  8
0
100
AcDbLine
 10
24.99999966859104
 20
50.00000023050245
 30
0.0
 11
24.99999966859104
 21
55.00000023050245
 31
0.0
  0
LINE
  5
AC
330
A5
100
AcDbEntity
  8
0
100
AcDbLine
 10
25.0
 20
50.00000023050245
 30
0.0
 11
25.0
 21
55.00000023050245
 31
0.0
  0
LINE
  5
AD
330
A5
100
AcDbEntity
  8
0
100
AcDbLine
 10
39.99999966859104
 20
50.00000023050245
 30
0.0
 11
39.99999966859104
 21
55.00000023050245
 31
0.0
  0
LINE
  5
AE
330
A5
100
AcDbEntity
  8
0
100
AcDbLine
 10
44.99999966859104
 20
50.00000023050245
 30
0.0
 11
44.99999966859104
 21
55.00000023050245
 31
0.0
  0
LINE
  5
AF
330
A5
100
AcDbEntity
  8
0
100
AcDbLine
 10
55.0
 20
50.00000023050245
 30
0.0
 11
55.0
 21
45.00000023050245
 31
0.0
  0
LINE
  5
B0
330
A5
100
AcDbEntity
  8
0
100
AcDbLine
 10
60.0
 20
50.00000023050245
 30
0.0
 11
60.0
 21
45.00000023050245
 31
0.0
  0
LINE
  5
B1
330
A5
100
AcDbEntity
  8
0
100
AcDbLine
 10
70.0
 20
50.00000023050245
 30
0.0
 11
70.0
 21
45.00000023050245
 31
0.0
  0
LINE
  5
B2
330
A5
100
AcDbEntity
  8
0
100
AcDbLine
 10
65.0
 20
50.00000023050245
 30
0.0
 11
65.0
 21
45.00000023050245
 31
0.0
  0
LINE
  5
B3
330
A5
100
AcDbEntity
  8
0
100
AcDbLine
 10
79.99999966859104
 20
50.00000023050245
 30
0.0
 11
79.99999966859104
 21
45.00000023050245
 31
0.0
  0
LINE
  5
B4
330
A5
100
AcDbEntity
  8
0
100
AcDbLine
 10
74.99999966859104
 20
50.00000023050245
 30
0.0
 11
74.99999966859104
 21
45.00000023050245
 31
0.0
  0
LINE
  5
B5
330
A5
100
AcDbEntity
  8
0
100
AcDbLine
 10
75.0
 20
50.00000023050245
 30
0.0
 11
75.0
 21
45.00000023050245
 31
0.0
  0
LINE
  5
B6
330
A5
100
AcDbEntity
  8
0
100
AcDbLine
 10
84.99999966859105
 20
50.00000023050245
 30
0.0
 11
84.99999966859105
 21
45.00000023050245
 31
0.0
  0
LINE
  5
B7
330
A5
100
AcDbEntity
  8
0
100
AcDbLine
 10
89.99999966859105
 20
50.00000023050245
 30
0.0
 11
89.99999966859105
 21
45.00000023050245
 31
0.0
  0
LINE
  5
B8
330
A5
100
AcDbEntity
  8
0
100
AcDbLine
 10
94.99999966859105
 20
50.00000023050245
 30
0.0
 11
94.99999966859105
 21
45.00000023050245
 31
0.0
  0
ENDBLK
  5
BA
330
A5
100
AcDbEntity
  8
0
100
AcDbBlockEnd
  0
BLOCK
  5
15A
330
141
100
AcDbEntity
  8
0
 62
     2
100
AcDbBlockBegin
  2
A$C43C06514
 70
     0
 10
0.0
 20
0.0
 30
0.0
  3
A$C43C06514
  1

  0
LWPOLYLINE
  5
142
330
141
100
AcDbEntity
  8
0
100
AcDbPolyline
 90
        4
 70
     1
 43
0.0
 10
0.0
 20
50.00000023050245
 10
50.0
 20
50.00000023050245
 10
50.0
 20
100.0000002305024
 10
0.0
 20
100.0000002305024
  0
LINE
  5
143
330
141
100
AcDbEntity
  8
0
100
AcDbLine
 10
5.0
 20
50.00000023050245
 30
0.0
 11
5.0
 21
55.00000023050245
 31
0.0
  0
LINE
  5
144
330
141
100
AcDbEntity
  8
0
100
AcDbLine
 10
0.1108860529595859
 20
93.83986859707182
 30
0.0
 11
0.1108860529595859
 21
98.83986859707182
 31
0.0
  0
LWPOLYLINE
  5
145
330
141
100
AcDbEntity
  8
0
100
AcDbPolyline
 90
        4
 70
     1
 43
0.0
 10
50.0
 20
50.00000023050245
 10
100.0
 20
50.00000023050245
 10
100.0
 20
0.0000002305024509
 10
50.0
 20
0.0000002305024509
  0
LINE
  5
146
330
141
100
AcDbEntity
  8
0
100
AcDbLine
 10
50.11088605295959
 20
6.160131863933088
 30
0.0
 11
50.11088605295959
 21
1.160131863933088
 31
0.0
  0
LINE
  5
147
330
141
100
AcDbEntity
  8
0
100
AcDbLine
 10
29.99999966859104
 20
50.00000023050245
 30
0.0
 11
29.99999966859104
 21
55.00000023050245
 31
0.0
  0
LINE
  5
148
330
141
100
AcDbEntity
  8
0
100
AcDbLine
 10
34.99999966859104
 20
50.00000023050245
 30
0.0
 11
34.99999966859104
 21
55.00000023050245
 31
0.0
  0
LINE
  5
149
330
141
100
AcDbEntity
  8
0
100
AcDbLine
 10
24.99999966859104
 20
50.00000023050245
 30
0.0
 11
24.99999966859104
 21
55.00000023050245
 31
0.0
  0
LINE
  5
14A
330
141
100
AcDbEntity
  8
0
100
AcDbLine
 10
25.0
 20
50.00000023050245
 30
0.0
 11
25.0
 21
55.00000023050245
 31
0.0
  0
LINE
  5
14B
330
141
100
AcDbEntity
  8
0
100
AcDbLine
 10
20.0
 20
50.00000023050245
 30
0.0
 11
20.0
 21
55.00000023050245
 31
0.0
  0
LINE
  5
14C
330
141
100
AcDbEntity
  8
0
100
AcDbLine
 10
15.0
 20
50.00000023050245
 30
0.0
 11
15.0
 21
55.00000023050245
 31
0.0
  0
LINE
  5
14D
330
141
100
AcDbEntity
  8
0
100
AcDbLine
 10
10.0
 20
50.00000023050245
 30
0.0
 11
10.0
 21
55.00000023050245
 31
0.0
  0
LINE
  5
14E
330
141
100
AcDbEntity
  8
0
100
AcDbLine
 10
39.99999966859104
 20
50.00000023050245
 30
0.0
 11
39.99999966859104
 21
55.00000023050245
 31
0.0
  0
LINE
  5
14F
330
141
100
AcDbEntity
  8
0
100
AcDbLine
 10
44.99999966859104
 20
50.00000023050245
 30
0.0
 11
44.99999966859104
 21
55.00000023050245
 31
0.0
  0
LINE
  5
150
330
141
100
AcDbEntity
  8
0
100
AcDbLine
 10
55.0
 20
50.00000023050245
 30
0.0
 11
55.0
 21
45.00000023050245
 31
0.0
  0
LINE
  5
151
330
141
100
AcDbEntity
  8
0
100
AcDbLine
 10
60.0
 20
50.00000023050245
 30
0.0
 11
60.0
 21
45.00000023050245
 31
0.0
  0
LINE
  5
152
330
141
100
AcDbEntity
  8
0
100
AcDbLine
 10
70.0
 20
50.00000023050245
 30
0.0
 11
70.0
 21
45.00000023050245
 31
0.0
  0
LINE
  5
153
330
141
100
AcDbEntity
  8
0
100
AcDbLine
 10
65.0
 20
50.00000023050245
 30
0.0
 11
65.0
 21
45.00000023050245
 31
0.0
  0
LINE
  5
154
330
141
100
AcDbEntity
  8
0
100
AcDbLine
 10
79.99999966859104
 20
50.00000023050245
 30
0.0
 11
79.99999966859104
 21
45.00000023050245
 31
0.0
  0
LINE
  5
155
330
141
100
AcDbEntity
  8
0
100
AcDbLine
 10
74.99999966859104
 20
50.00000023050245
 30
0.0
 11
74.99999966859104
 21
45.00000023050245
 31
0.0
  0
LINE
  5
156
330
141
100
AcDbEntity
  8
0
100
AcDbLine
 10
75.0
 20
50.00000023050245
 30
0.0
 11
75.0
 21
45.00000023050245
 31
0.0
  0
LINE
  5
157
330
141
100
AcDbEntity
  8
0
100
AcDbLine
 10
84.99999966859105
 20
50.00000023050245
 30
0.0
 11
84.99999966859105
 21
45.00000023050245
 31
0.0
  0
LINE
  5
158
330
141
100
AcDbEntity
  8
0
100
AcDbLine
 10
89.99999966859105
 20
50.00000023050245
 30
0.0
 11
89.99999966859105
 21
45.00000023050245
 31
0.0
  0
LINE
  5
159
330
141
100
AcDbEntity
  8
0
100
AcDbLine
 10
94.99999966859105
 20
50.00000023050245
 30
0.0
 11
94.99999966859105
 21
45.00000023050245
 31
0.0
  0
ENDBLK
  5
15B
330
141
100
AcDbEntity
  8
0
 62
     2
100
AcDbBlockEnd
  0
BLOCK
  5
415
330
414
100
AcDbEntity
  8
0
100
AcDbBlockBegin
  2
DVIEWBLOCK
 70
     0
 10
0.0
 20
0.0
 30
0.0
  3
DVIEWBLOCK
  1

  0
3DFACE
  5
416
330
414
100
AcDbEntity
  8
ventanas
 62
     4
100
AcDbFace
 10
0.1
 20
0.1
 30
0.0
 11
0.9
 21
0.1
 31
0.0
 12
0.9
 22
0.9
 32
0.0
 13
0.1
 23
0.9
 33
0.0
  0
3DFACE
  5
417
330
414
100
AcDbEntity
  8
ventanas
 62
     4
100
AcDbFace
 10
0.1
 20
0.1
 30
0.0
 11
0.1
 21
0.1
 31
0.595
 12
0.2
 22
0.1
 32
0.4
 13
0.2
 23
0.1
 33
0.0
 70
    10
  0
3DFACE
  5
418
330
414
100
AcDbEntity
  8
ventanas
 62
     4
100
AcDbFace
 10
0.2
 20
0.1
 30
0.4
 11
0.1
 21
0.1
 31
0.595
 12
0.9
 22
0.1
 32
0.595
 13
0.4
 23
0.1
 33
0.4
 70
     5
  0
3DFACE
  5
419
330
414
100
AcDbEntity
  8
ventanas
 62
     4
100
AcDbFace
 10
0.4
 20
0.1
 30
0.0
 11
0.4
 21
0.1
 31
0.4
 12
0.9
 22
0.1
 32
0.595
 13
0.9
 23
0.1
 33
0.0
 70
    14
  0
3DFACE
  5
41A
330
414
100
AcDbEntity
  8
ventanas
 62
     7
100
AcDbFace
 10
0.2
 20
0.1
 30
0.005
 11
0.2
 21
0.1
 31
0.4
 12
0.34
 22
0.24
 32
0.4
 13
0.34
 23
0.24
 33
0.005
 70
     1
  0
3DFACE
  5
41B
330
414
100
AcDbEntity
  8
ventanas
 62
     4
100
AcDbFace
 10
0.9
 20
0.1
 30
0.0
 11
0.9
 21
0.1
 31
0.595
 12
0.9
 22
0.5
 32
0.9949999999999999
 13
0.9
 23
0.3
 33
0.4
 70
    12
  0
3DFACE
  5
41C
330
414
100
AcDbEntity
  8
ventanas
 62
     4
100
AcDbFace
 10
0.9
 20
0.3
 30
0.4
 11
0.9
 21
0.5
 31
0.9949999999999999
 12
0.9
 22
0.9
 32
0.595
 13
0.9
 23
0.7000000000000001
 33
0.4
 70
     5
  0
3DFACE
  5
41D
330
414
100
AcDbEntity
  8
ventanas
 62
     4
100
AcDbFace
 10
0.9
 20
0.7000000000000001
 30
0.4
 11
0.9
 21
0.9
 31
0.595
 12
0.9
 22
0.9
 32
0.0
 13
0.9
 23
0.7000000000000001
 33
0.2
 70
     7
  0
3DFACE
  5
41E
330
414
100
AcDbEntity
  8
ventanas
 62
     4
100
AcDbFace
 10
0.9
 20
0.7000000000000001
 30
0.2
 11
0.9
 21
0.9
 31
0.0
 12
0.9
 22
0.1
 32
0.0
 13
0.9
 23
0.3
 33
0.2
 70
     7
  0
3DFACE
  5
41F
330
414
100
AcDbEntity
  8
ventanas
 62
     4
100
AcDbFace
 10
0.9
 20
0.3
 30
0.2
 11
0.9
 21
0.3
 31
0.2
 12
0.9
 22
0.1
 32
0.0
 13
0.9
 23
0.3
 33
0.4
 70
     7
  0
3DFACE
  5
420
330
414
100
AcDbEntity
  8
ventanas
 62
     4
100
AcDbFace
 10
0.9
 20
0.9
 30
0.0
 11
0.9
 21
0.9
 31
0.595
 12
0.1
 22
0.9
 32
0.595
 13
0.1
 23
0.9
 33
0.0
 70
    12
  0
3DFACE
  5
421
330
414
100
AcDbEntity
  8
ventanas
 62
     4
100
AcDbFace
 10
0.1
 20
0.9
 30
0.0
 11
0.1
 21
0.9
 31
0.595
 12
0.1
 22
0.5
 32
0.9949999999999999
 13
0.1
 23
0.5
 33
0.0
 70
    12
  0
3DFACE
  5
422
330
414
100
AcDbEntity
  8
ventanas
 62
     4
100
AcDbFace
 10
0.1
 20
0.5
 30
0.0
 11
0.1
 21
0.5
 31
0.9949999999999999
 12
0.1
 22
0.1
 32
0.595
 13
0.1
 23
0.1
 33
0.0
 70
    13
  0
3DFACE
  5
423
330
414
100
AcDbEntity
  8
ventanas
 62
     1
100
AcDbFace
 10
0.2
 20
0.6
 30
0.9
 11
0.2
 21
0.6
 31
1.0
 12
0.3
 22
0.6
 32
1.0
 13
0.3
 23
0.6
 33
0.9
 70
     4
  0
3DFACE
  5
424
330
414
100
AcDbEntity
  8
ventanas
 62
     1
100
AcDbFace
 10
0.3
 20
0.6
 30
0.9
 11
0.3
 21
0.6
 31
1.0
 12
0.3
 22
0.7000000000000001
 32
1.0
 13
0.3
 23
0.7000000000000001
 33
0.8
 70
     4
  0
3DFACE
  5
425
330
414
100
AcDbEntity
  8
ventanas
 62
     1
100
AcDbFace
 10
0.3
 20
0.7000000000000001
 30
0.8
 11
0.3
 21
0.7000000000000001
 31
1.0
 12
0.2
 22
0.7000000000000001
 32
1.0
 13
0.2
 23
0.7000000000000001
 33
0.8
 70
     4
  0
3DFACE
  5
426
330
414
100
AcDbEntity
  8
ventanas
 62
     1
100
AcDbFace
 10
0.2
 20
0.7000000000000001
 30
0.8
 11
0.2
 21
0.7000000000000001
 31
1.0
 12
0.2
 22
0.6
 32
1.0
 13
0.2
 23
0.6
 33
0.9
 70
     4
  0
3DFACE
  5
427
330
414
100
AcDbEntity
  8
ventanas
 62
     4
100
AcDbFace
 10
0.0
 20
0.0
 30
0.5
 11
1.0
 21
0.0
 31
0.5
 12
1.0
 22
0.5
 32
1.0
 13
0.0
 23
0.5
 33
1.0
  0
3DFACE
  5
428
330
414
100
AcDbEntity
  8
ventanas
 62
     4
100
AcDbFace
 10
0.0
 20
0.5
 30
1.0
 11
1.0
 21
0.5
 31
1.0
 12
1.0
 22
1.0
 32
0.5
 13
0.0
 23
1.0
 33
0.5
 70
     1
  0
ENDBLK
  5
429
330
414
100
AcDbEntity
  8
0
100
AcDbBlockEnd
  0
BLOCK
  5
518
330
517
100
AcDbEntity
  8
0
 62
     7
100
AcDbBlockBegin
  2
*U7
 70
     1
 10
0.0
 20
0.0
 30
0.0
  3
*U7
  1

  0
ENDBLK
  5
519
330
517
100
AcDbEntity
  8
0
 62
     7
100
AcDbBlockEnd
  0
BLOCK
  5
558
330
556
100
AcDbEntity
  8
0
 62
     7
100
AcDbBlockBegin
  2
GENAXEH
 70
     0
 10
0.0
 20
0.0
 30
0.0
  3
GENAXEH
  1

  0
LINE
  5
557
330
556
100
AcDbEntity
  8
0
100
AcDbLine
 10
-1.0
 20
0.0
 30
0.0
 11
1.0
 21
0.0
 31
0.0
  0
ENDBLK
  5
559
330
556
100
AcDbEntity
  8
0
 62
     7
100
AcDbBlockEnd
  0
ENDSEC
  0
SECTION
  2
ENTITIES
  0
HATCH
  5
1FF
330
1F
100
AcDbEntity
  8
0
100
AcDbHatch
 10
0.0
 20
0.0
 30
0.0
210
0.0
220
0.0
230
1.0
  2
SOLID
 70
     1
 71
     0
 91
        2
 92
        7
 72
     0
 73
     1
 93
        4
 10
55.0096553806921
 20
139.9896942083004
 10
55.00965538069209
 20
89.98969420830045
 10
105.009655380692
 20
89.98969420830041
 10
105.009655380692
 20
139.9896942083004
 97
        0
 92
        7
 72
     0
 73
     1
 93
        4
 10
5.009655380692038
 20
39.98969420830042
 10
55.00965515018959
 20
39.98969420830042
 10
55.00965515018965
 20
89.98969420830041
 10
5.009655380692095
 20
89.98969420830039
 97
        0
 75
     0
 76
     1
 47
0.2040888213119329
 98
        2
 10
79.80646279884701
 20
120.4911501062746
 10
22.66159290957921
 20
71.86980189193775
  0
HATCH
  5
3AC
330
1F
100
AcDbEntity
  8
0
100
AcDbHatch
 10
0.0
 20
0.0
 30
0.0
210
0.0
220
0.0
230
1.0
  2
SOLID
 70
     1
 71
     0
 91
        2
 92
        7
 72
     0
 73
     1
 93
        4
 10
55.0096553806921
 20
339.9896942083004
 10
55.00965538069209
 20
289.9896942083003
 10
105.009655380692
 20
289.9896942083003
 10
105.009655380692
 20
339.9896942083004
 97
        0
 92
        7
 72
     0
 73
     1
 93
        4
 10
5.009655380692038
 20
239.9896942083004
 10
55.00965515018959
 20
239.9896942083004
 10
55.00965515018965
 20
289.9896942083003
 10
5.009655380692095
 20
289.9896942083003
 97
        0
 75
     0
 76
     1
 47
0.2040888213119329
 98
        2
 10
79.80646279884701
 20
320.4911501062746
 10
22.66159290957921
 20
271.8698018919377
  0
HATCH
  5
3AD
330
1F
100
AcDbEntity
  8
0
100
AcDbHatch
 10
0.0
 20
0.0
 30
0.0
210
0.0
220
0.0
230
1.0
  2
SOLID
 70
     1
 71
     0
 91
        2
 92
        7
 72
     0
 73
     1
 93
        4
 10
55.0096553806921
 20
439.9896942083004
 10
55.00965538069209
 20
389.9896942083003
 10
105.009655380692
 20
389.9896942083003
 10
105.009655380692
 20
439.9896942083004
 97
        0
 92
        7
 72
     0
 73
     1
 93
        4
 10
5.009655380692038
 20
339.9896942083004
 10
55.00965515018959
 20
339.9896942083004
 10
55.00965515018965
 20
389.9896942083003
 10
5.009655380692095
 20
389.9896942083003
 97
        0
 75
     0
 76
     1
 47
0.2040888213119329
 98
        2
 10
79.80646279884701
 20
420.4911501062746
 10
22.66159290957921
 20
371.8698018919377
  0
HATCH
  5
3AE
330
1F
100
AcDbEntity
  8
0
100
AcDbHatch
 10
0.0
 20
0.0
 30
0.0
210
0.0
220
0.0
230
1.0
  2
SOLID
 70
     1
 71
     0
 91
        2
 92
        7
 72
     0
 73
     1
 93
        4
 10
55.0096553806921
 20
539.9896942083004
 10
55.00965538069209
 20
489.9896942083004
 10
105.009655380692
 20
489.9896942083004
 10
105.009655380692
 20
539.9896942083004
 97
        0
 92
        7
 72
     0
 73
     1
 93
        4
 10
5.009655380692038
 20
439.9896942083004
 10
55.00965515018959
 20
439.9896942083004
 10
55.00965515018965
 20
489.9896942083004
 10
5.009655380692095
 20
489.9896942083004
 97
        0
 75
     0
 76
     1
 47
0.2040888213119329
 98
        2
 10
79.80646279884701
 20
520.4911501062746
 10
22.66159290957921
 20
471.8698018919377
  0
HATCH
  5
3AF
330
1F
100
AcDbEntity
  8
0
100
AcDbHatch
 10
0.0
 20
0.0
 30
0.0
210
0.0
220
0.0
230
1.0
  2
SOLID
 70
     1
 71
     0
 91
        2
 92
        7
 72
     0
 73
     1
 93
        4
 10
55.0096553806921
 20
639.9896942083004
 10
55.00965538069209
 20
589.9896942083004
 10
105.009655380692
 20
589.9896942083004
 10
105.009655380692
 20
639.9896942083004
 97
        0
 92
        7
 72
     0
 73
     1
 93
        4
 10
5.009655380692038
 20
539.9896942083004
 10
55.00965515018959
 20
539.9896942083004
 10
55.00965515018965
 20
589.9896942083004
 10
5.009655380692095
 20
589.9896942083004
 97
        0
 75
     0
 76
     1
 47
0.2040888213119329
 98
        2
 10
79.80646279884701
 20
620.4911501062746
 10
22.66159290957921
 20
571.8698018919377
  0
HATCH
  5
3B0
330
1F
100
AcDbEntity
  8
0
100
AcDbHatch
 10
0.0
 20
0.0
 30
0.0
210
0.0
220
0.0
230
1.0
  2
SOLID
 70
     1
 71
     0
 91
        2
 92
        7
 72
     0
 73
     1
 93
        4
 10
155.009655380692
 20
139.9896942083004
 10
155.009655380692
 20
89.98969420830045
 10
205.0096553806921
 20
89.98969420830041
 10
205.0096553806921
 20
139.9896942083004
 97
        0
 92
        7
 72
     0
 73
     1
 93
        4
 10
105.009655380692
 20
39.98969420830042
 10
155.0096551501895
 20
39.98969420830042
 10
155.0096551501896
 20
89.98969420830041
 10
105.009655380692
 20
89.98969420830039
 97
        0
 75
     0
 76
     1
 47
0.2040888213119329
 98
        2
 10
179.806462798847
 20
120.4911501062746
 10
122.6615929095792
 20
71.86980189193775
  0
HATCH
  5
3B1
330
1F
100
AcDbEntity
  8
0
100
AcDbHatch
 10
0.0
 20
0.0
 30
0.0
210
0.0
220
0.0
230
1.0
  2
SOLID
 70
     1
 71
     0
 91
        2
 92
        7
 72
     0
 73
     1
 93
        4
 10
155.009655380692
 20
339.9896942083004
 10
155.009655380692
 20
289.9896942083003
 10
205.0096553806921
 20
289.9896942083003
 10
205.0096553806921
 20
339.9896942083004
 97
        0
 92
        7
 72
     0
 73
     1
 93
        4
 10
105.009655380692
 20
239.9896942083004
 10
155.0096551501895
 20
239.9896942083004
 10
155.0096551501896
 20
289.9896942083003
 10
105.009655380692
 20
289.9896942083003
 97
        0
 75
     0
 76
     1
 47
0.2040888213119329
 98
        2
 10
179.806462798847
 20
320.4911501062746
 10
122.6615929095792
 20
271.8698018919377
  0
HATCH
  5
3B2
330
1F
100
AcDbEntity
  8
0
100
AcDbHatch
 10
0.0
 20
0.0
 30
0.0
210
0.0
220
0.0
230
1.0
  2
SOLID
 70
     1
 71
     0
 91
        2
 92
        7
 72
     0
 73
     1
 93
        4
 10
155.009655380692
 20
439.9896942083004
 10
155.009655380692
 20
389.9896942083003
 10
205.0096553806921
 20
389.9896942083003
 10
205.0096553806921
 20
439.9896942083004
 97
        0
 92
        7
 72
     0
 73
     1
 93
        4
 10
105.009655380692
 20
339.9896942083004
 10
155.0096551501895
 20
339.9896942083004
 10
155.0096551501896
 20
389.9896942083003
 10
105.009655380692
 20
389.9896942083003
 97
        0
 75
     0
 76
     1
 47
0.2040888213119329
 98
        2
 10
179.806462798847
 20
420.4911501062746
 10
122.6615929095792
 20
371.8698018919377
  0
HATCH
  5
3B3
330
1F
100
AcDbEntity
  8
0
100
AcDbHatch
 10
0.0
 20
0.0
 30
0.0
210
0.0
220
0.0
230
1.0
  2
SOLID
 70
     1
 71
     0
 91
        2
 92
        7
 72
     0
 73
     1
 93
        4
 10
155.009655380692
 20
539.9896942083004
 10
155.009655380692
 20
489.9896942083004
 10
205.0096553806921
 20
489.9896942083004
 10
205.0096553806921
 20
539.9896942083004
 97
        0
 92
        7
 72
     0
 73
     1
 93
        4
 10
105.009655380692
 20
439.9896942083004
 10
155.0096551501895
 20
439.9896942083004
 10
155.0096551501896
 20
489.9896942083004
 10
105.009655380692
 20
489.9896942083004
 97
        0
 75
     0
 76
     1
 47
0.2040888213119329
 98
        2
 10
179.806462798847
 20
520.4911501062746
 10
122.6615929095792
 20
471.8698018919377
  0
HATCH
  5
3B4
330
1F
100
AcDbEntity
  8
0
100
AcDbHatch
 10
0.0
 20
0.0
 30
0.0
210
0.0
220
0.0
230
1.0
  2
SOLID
 70
     1
 71
     0
 91
        2
 92
        7
 72
     0
 73
     1
 93
        4
 10
155.009655380692
 20
639.9896942083004
 10
155.009655380692
 20
589.9896942083004
 10
205.0096553806921
 20
589.9896942083004
 10
205.0096553806921
 20
639.9896942083004
 97
        0
 92
        7
 72
     0
 73
     1
 93
        4
 10
105.009655380692
 20
539.9896942083004
 10
155.0096551501895
 20
539.9896942083004
 10
155.0096551501896
 20
589.9896942083004
 10
105.009655380692
 20
589.9896942083004
 97
        0
 75
     0
 76
     1
 47
0.2040888213119329
 98
        2
 10
179.806462798847
 20
620.4911501062746
 10
122.6615929095792
 20
571.8698018919377
  0
HATCH
  5
3B5
330
1F
100
AcDbEntity
  8
0
100
AcDbHatch
 10
0.0
 20
0.0
 30
0.0
210
0.0
220
0.0
230
1.0
  2
SOLID
 70
     1
 71
     0
 91
        2
 92
        7
 72
     0
 73
     1
 93
        4
 10
255.0096553806921
 20
139.9896942083004
 10
255.0096553806921
 20
89.98969420830045
 10
305.0096553806921
 20
89.98969420830041
 10
305.0096553806921
 20
139.9896942083004
 97
        0
 92
        7
 72
     0
 73
     1
 93
        4
 10
205.009655380692
 20
39.98969420830042
 10
255.0096551501896
 20
39.98969420830042
 10
255.0096551501896
 20
89.98969420830041
 10
205.0096553806921
 20
89.98969420830039
 97
        0
 75
     0
 76
     1
 47
0.2040888213119329
 98
        2
 10
279.806462798847
 20
120.4911501062746
 10
222.6615929095792
 20
71.86980189193775
  0
HATCH
  5
3B7
330
1F
100
AcDbEntity
  8
0
100
AcDbHatch
 10
0.0
 20
0.0
 30
0.0
210
0.0
220
0.0
230
1.0
  2
SOLID
 70
     1
 71
     0
 91
        2
 92
        7
 72
     0
 73
     1
 93
        4
 10
255.0096553806921
 20
439.9896942083004
 10
255.0096553806921
 20
389.9896942083003
 10
305.0096553806921
 20
389.9896942083003
 10
305.0096553806921
 20
439.9896942083004
 97
        0
 92
        7
 72
     0
 73
     1
 93
        4
 10
205.009655380692
 20
339.9896942083004
 10
255.0096551501896
 20
339.9896942083004
 10
255.0096551501896
 20
389.9896942083003
 10
205.0096553806921
 20
389.9896942083003
 97
        0
 75
     0
 76
     1
 47
0.2040888213119329
 98
        2
 10
279.806462798847
 20
420.4911501062746
 10
222.6615929095792
 20
371.8698018919377
  0
HATCH
  5
3B8
330
1F
100
AcDbEntity
  8
0
100
AcDbHatch
 10
0.0
 20
0.0
 30
0.0
210
0.0
220
0.0
230
1.0
  2
SOLID
 70
     1
 71
     0
 91
        2
 92
        7
 72
     0
 73
     1
 93
        4
 10
255.0096553806921
 20
539.9896942083004
 10
255.0096553806921
 20
489.9896942083004
 10
305.0096553806921
 20
489.9896942083004
 10
305.0096553806921
 20
539.9896942083004
 97
        0
 92
        7
 72
     0
 73
     1
 93
        4
 10
205.009655380692
 20
439.9896942083004
 10
255.0096551501896
 20
439.9896942083004
 10
255.0096551501896
 20
489.9896942083004
 10
205.0096553806921
 20
489.9896942083004
 97
        0
 75
     0
 76
     1
 47
0.2040888213119329
 98
        2
 10
279.806462798847
 20
520.4911501062746
 10
222.6615929095792
 20
471.8698018919377
  0
HATCH
  5
3B9
330
1F
100
AcDbEntity
  8
0
100
AcDbHatch
 10
0.0
 20
0.0
 30
0.0
210
0.0
220
0.0
230
1.0
  2
SOLID
 70
     1
 71
     0
 91
        2
 92
        7
 72
     0
 73
     1
 93
        4
 10
255.0096553806921
 20
639.9896942083004
 10
255.0096553806921
 20
589.9896942083004
 10
305.0096553806921
 20
589.9896942083004
 10
305.0096553806921
 20
639.9896942083004
 97
        0
 92
        7
 72
     0
 73
     1
 93
        4
 10
205.009655380692
 20
539.9896942083004
 10
255.0096551501896
 20
539.9896942083004
 10
255.0096551501896
 20
589.9896942083004
 10
205.0096553806921
 20
589.9896942083004
 97
        0
 75
     0
 76
     1
 47
0.2040888213119329
 98
        2
 10
279.806462798847
 20
620.4911501062746
 10
222.6615929095792
 20
571.8698018919377
  0
HATCH
  5
3BA
330
1F
100
AcDbEntity
  8
0
100
AcDbHatch
 10
0.0
 20
0.0
 30
0.0
210
0.0
220
0.0
230
1.0
  2
SOLID
 70
     1
 71
     0
 91
        2
 92
        7
 72
     0
 73
     1
 93
        4
 10
355.0096553806921
 20
139.9896942083004
 10
355.0096553806921
 20
89.98969420830045
 10
405.0096553806921
 20
89.98969420830041
 10
405.0096553806921
 20
139.9896942083004
 97
        0
 92
        7
 72
     0
 73
     1
 93
        4
 10
305.009655380692
 20
39.98969420830042
 10
355.0096551501896
 20
39.98969420830042
 10
355.0096551501896
 20
89.98969420830041
 10
305.0096553806921
 20
89.98969420830039
 97
        0
 75
     0
 76
     1
 47
0.2040888213119329
 98
        2
 10
379.806462798847
 20
120.4911501062746
 10
322.6615929095792
 20
71.86980189193775
  0
HATCH
  5
3BC
330
1F
100
AcDbEntity
  8
0
100
AcDbHatch
 10
0.0
 20
0.0
 30
0.0
210
0.0
220
0.0
230
1.0
  2
SOLID
 70
     1
 71
     0
 91
        2
 92
        7
 72
     0
 73
     1
 93
        4
 10
355.0096553806921
 20
439.9896942083004
 10
355.0096553806921
 20
389.9896942083003
 10
405.0096553806921
 20
389.9896942083003
 10
405.0096553806921
 20
439.9896942083004
 97
        0
 92
        7
 72
     0
 73
     1
 93
        4
 10
305.009655380692
 20
339.9896942083004
 10
355.0096551501896
 20
339.9896942083004
 10
355.0096551501896
 20
389.9896942083003
 10
305.0096553806921
 20
389.9896942083003
 97
        0
 75
     0
 76
     1
 47
0.2040888213119329
 98
        2
 10
379.806462798847
 20
420.4911501062746
 10
322.6615929095792
 20
371.8698018919377
  0
HATCH
  5
3BD
330
1F
100
AcDbEntity
  8
0
100
AcDbHatch
 10
0.0
 20
0.0
 30
0.0
210
0.0
220
0.0
230
1.0
  2
SOLID
 70
     1
 71
     0
 91
        2
 92
        7
 72
     0
 73
     1
 93
        4
 10
355.0096553806921
 20
539.9896942083004
 10
355.0096553806921
 20
489.9896942083004
 10
405.0096553806921
 20
489.9896942083004
 10
405.0096553806921
 20
539.9896942083004
 97
        0
 92
        7
 72
     0
 73
     1
 93
        4
 10
305.009655380692
 20
439.9896942083004
 10
355.0096551501896
 20
439.9896942083004
 10
355.0096551501896
 20
489.9896942083004
 10
305.0096553806921
 20
489.9896942083004
 97
        0
 75
     0
 76
     1
 47
0.2040888213119329
 98
        2
 10
379.806462798847
 20
520.4911501062746
 10
322.6615929095792
 20
471.8698018919377
  0
HATCH
  5
3BE
330
1F
100
AcDbEntity
  8
0
100
AcDbHatch
 10
0.0
 20
0.0
 30
0.0
210
0.0
220
0.0
230
1.0
  2
SOLID
 70
     1
 71
     0
 91
        2
 92
        7
 72
     0
 73
     1
 93
        4
 10
355.0096553806921
 20
639.9896942083004
 10
355.0096553806921
 20
589.9896942083004
 10
405.0096553806921
 20
589.9896942083004
 10
405.0096553806921
 20
639.9896942083004
 97
        0
 92
        7
 72
     0
 73
     1
 93
        4
 10
305.009655380692
 20
539.9896942083004
 10
355.0096551501896
 20
539.9896942083004
 10
355.0096551501896
 20
589.9896942083004
 10
305.0096553806921
 20
589.9896942083004
 97
        0
 75
     0
 76
     1
 47
0.2040888213119329
 98
        2
 10
379.806462798847
 20
620.4911501062746
 10
322.6615929095792
 20
571.8698018919377
  0
HATCH
  5
3BF
330
1F
100
AcDbEntity
  8
0
100
AcDbHatch
 10
0.0
 20
0.0
 30
0.0
210
0.0
220
0.0
230
1.0
  2
SOLID
 70
     1
 71
     0
 91
        2
 92
        7
 72
     0
 73
     1
 93
        4
 10
455.0096553806921
 20
139.9896942083004
 10
455.0096553806921
 20
89.98969420830045
 10
505.0096553806921
 20
89.98969420830041
 10
505.0096553806921
 20
139.9896942083004
 97
        0
 92
        7
 72
     0
 73
     1
 93
        4
 10
405.009655380692
 20
39.98969420830042
 10
455.0096551501895
 20
39.98969420830042
 10
455.0096551501896
 20
89.98969420830041
 10
405.0096553806921
 20
89.98969420830039
 97
        0
 75
     0
 76
     1
 47
0.2040888213119329
 98
        2
 10
479.806462798847
 20
120.4911501062746
 10
422.6615929095792
 20
71.86980189193775
  0
HATCH
  5
3C0
330
1F
100
AcDbEntity
  8
0
100
AcDbHatch
 10
0.0
 20
0.0
 30
0.0
210
0.0
220
0.0
230
1.0
  2
SOLID
 70
     1
 71
     0
 91
        2
 92
        7
 72
     0
 73
     1
 93
        4
 10
455.0096553806921
 20
339.9896942083004
 10
455.0096553806921
 20
289.9896942083003
 10
505.0096553806921
 20
289.9896942083003
 10
505.0096553806921
 20
339.9896942083004
 97
        0
 92
        7
 72
     0
 73
     1
 93
        4
 10
405.009655380692
 20
239.9896942083004
 10
455.0096551501895
 20
239.9896942083004
 10
455.0096551501896
 20
289.9896942083003
 10
405.0096553806921
 20
289.9896942083003
 97
        0
 75
     0
 76
     1
 47
0.2040888213119329
 98
        2
 10
479.806462798847
 20
320.4911501062746
 10
422.6615929095792
 20
271.8698018919377
  0
HATCH
  5
3C1
330
1F
100
AcDbEntity
  8
0
100
AcDbHatch
 10
0.0
 20
0.0
 30
0.0
210
0.0
220
0.0
230
1.0
  2
SOLID
 70
     1
 71
     0
 91
        2
 92
        7
 72
     0
 73
     1
 93
        4
 10
455.0096553806921
 20
439.9896942083004
 10
455.0096553806921
 20
389.9896942083003
 10
505.0096553806921
 20
389.9896942083003
 10
505.0096553806921
 20
439.9896942083004
 97
        0
 92
        7
 72
     0
 73
     1
 93
        4
 10
405.009655380692
 20
339.9896942083004
 10
455.0096551501895
 20
339.9896942083004
 10
455.0096551501896
 20
389.9896942083003
 10
405.0096553806921
 20
389.9896942083003
 97
        0
 75
     0
 76
     1
 47
0.2040888213119329
 98
        2
 10
479.806462798847
 20
420.4911501062746
 10
422.6615929095792
 20
371.8698018919377
  0
HATCH
  5
3C2
330
1F
100
AcDbEntity
  8
0
100
AcDbHatch
 10
0.0
 20
0.0
 30
0.0
210
0.0
220
0.0
230
1.0
  2
SOLID
 70
     1
 71
     0
 91
        2
 92
        7
 72
     0
 73
     1
 93
        4
 10
455.0096553806921
 20
539.9896942083004
 10
455.0096553806921
 20
489.9896942083004
 10
505.0096553806921
 20
489.9896942083004
 10
505.0096553806921
 20
539.9896942083004
 97
        0
 92
        7
 72
     0
 73
     1
 93
        4
 10
405.009655380692
 20
439.9896942083004
 10
455.0096551501895
 20
439.9896942083004
 10
455.0096551501896
 20
489.9896942083004
 10
405.0096553806921
 20
489.9896942083004
 97
        0
 75
     0
 76
     1
 47
0.2040888213119329
 98
        2
 10
479.806462798847
 20
520.4911501062746
 10
422.6615929095792
 20
471.8698018919377
  0
HATCH
  5
3C3
330
1F
100
AcDbEntity
  8
0
100
AcDbHatch
 10
0.0
 20
0.0
 30
0.0
210
0.0
220
0.0
230
1.0
  2
SOLID
 70
     1
 71
     0
 91
        2
 92
        7
 72
     0
 73
     1
 93
        4
 10
455.0096553806921
 20
639.9896942083004
 10
455.0096553806921
 20
589.9896942083004
 10
505.0096553806921
 20
589.9896942083004
 10
505.0096553806921
 20
639.9896942083004
 97
        0
 92
        7
 72
     0
 73
     1
 93
        4
 10
405.009655380692
 20
539.9896942083004
 10
455.0096551501895
 20
539.9896942083004
 10
455.0096551501896
 20
589.9896942083004
 10
405.0096553806921
 20
589.9896942083004
 97
        0
 75
     0
 76
     1
 47
0.2040888213119329
 98
        2
 10
479.806462798847
 20
620.4911501062746
 10
422.6615929095792
 20
571.8698018919377
  0
HATCH
  5
3CA
330
1F
100
AcDbEntity
  8
0
100
AcDbHatch
 10
0.0
 20
0.0
 30
0.0
210
0.0
220
0.0
230
1.0
  2
SOLID
 70
     1
 71
     0
 91
        1
 92
        1
 93
        1
 72
     2
 10
229.8742534971803
 20
414.8542922031557
 40
15.0
 50
0.0
 51
360.0
 73
     1
 97
        0
 75
     0
 76
     1
 98
        1
 10
0.0
 20
0.0
  0
HATCH
  5
3CD
330
1F
100
AcDbEntity
  8
0
100
AcDbHatch
 10
0.0
 20
0.0
 30
0.0
210
0.0
220
0.0
230
1.0
  2
SOLID
 70
     1
 71
     0
 91
        2
 92
        7
 72
     0
 73
     1
 93
        4
 10
305.0096553806921
 20
389.9896942083003
 10
305.0096553806921
 20
339.9896942083004
 10
355.0096553806921
 20
339.9896942083004
 10
355.0096553806921
 20
389.9896942083003
 97
        0
 92
        7
 72
     0
 73
     1
 93
        4
 10
255.009655380692
 20
289.9896942083003
 10
305.0096551501896
 20
289.9896942083003
 10
305.0096551501896
 20
339.9896942083004
 10
255.0096553806921
 20
339.9896942083004
 97
        0
 75
     0
 76
     1
 47
0.2040888213119329
 98
        2
 10
329.806462798847
 20
370.4911501062746
 10
272.6615929095792
 20
321.8698018919377
  0
HATCH
  5
3CE
330
1F
100
AcDbEntity
  8
0
100
AcDbHatch
 10
0.0
 20
0.0
 30
0.0
210
0.0
220
0.0
230
1.0
  2
SOLID
 70
     1
 71
     0
 91
        2
 92
        7
 72
     0
 73
     1
 93
        4
 10
405.0096553806921
 20
389.9896942083003
 10
405.0096553806921
 20
339.9896942083004
 10
455.0096553806921
 20
339.9896942083004
 10
455.0096553806921
 20
389.9896942083003
 97
        0
 92
        7
 72
     0
 73
     1
 93
        4
 10
355.009655380692
 20
289.9896942083003
 10
405.0096551501895
 20
289.9896942083003
 10
405.0096551501896
 20
339.9896942083004
 10
355.0096553806921
 20
339.9896942083004
 97
        0
 75
     0
 76
     1
 47
0.2040888213119329
 98
        2
 10
429.806462798847
 20
370.4911501062746
 10
372.6615929095792
 20
321.8698018919377
  0
HATCH
  5
3D1
330
1F
100
AcDbEntity
  8
0
100
AcDbHatch
 10
0.0
 20
0.0
 30
0.0
210
0.0
220
0.0
230
1.0
  2
SOLID
 70
     1
 71
     0
 91
        2
 92
        1
 93
        4
 72
     1
 10
205.0096553794101
 20
239.9896942074072
 11
255.0096553794101
 21
239.9896942074072
 72
     1
 10
255.0096553794101
 20
239.9896942074072
 11
255.0096553794101
 21
289.9896942074072
 72
     1
 10
255.0096553794101
 20
289.9896942074072
 11
205.0096553794101
 21
289.9896942074072
 72
     1
 10
205.0096553794101
 20
289.9896942074072
 11
205.0096553794101
 21
239.9896942074072
 97
        0
 92
       16
 93
        1
 72
     2
 10
230.0096553794101
 20
264.9896942074072
 40
15.0
 50
0.0
 51
360.0
 73
     1
 97
        0
 75
     0
 76
     1
 98
        1
 10
6.023297998725439
 20
-2.266853639063754
  0
HATCH
  5
3D2
330
1F
100
AcDbEntity
  8
0
100
AcDbHatch
 10
0.0
 20
0.0
 30
0.0
210
0.0
220
0.0
230
1.0
  2
SOLID
 70
     1
 71
     0
 91
        2
 92
        1
 93
        4
 72
     1
 10
305.0096553794101
 20
239.9896942074072
 11
355.0096553794101
 21
239.9896942074072
 72
     1
 10
355.0096553794101
 20
239.9896942074072
 11
355.0096553794101
 21
289.9896942074072
 72
     1
 10
355.0096553794101
 20
289.9896942074072
 11
305.0096553794101
 21
289.9896942074072
 72
     1
 10
305.0096553794101
 20
289.9896942074072
 11
305.0096553794101
 21
239.9896942074072
 97
        0
 92
       16
 93
        1
 72
     2
 10
330.0096553794101
 20
264.9896942074072
 40
15.0
 50
0.0
 51
360.0
 73
     1
 97
        0
 75
     0
 76
     1
 98
        1
 10
106.0232979987254
 20
-2.266853639063754
  0
HATCH
  5
3E4
330
1F
100
AcDbEntity
  8
0
100
AcDbHatch
 10
0.0
 20
0.0
 30
0.0
210
0.0
220
0.0
230
1.0
  2
SOLID
 70
     1
 71
     0
 91
        2
 92
        7
 72
     0
 73
     1
 93
        4
 10
55.0096553806921
 20
239.9896942083004
 10
55.00965538069209
 20
189.9896942083004
 10
105.009655380692
 20
189.9896942083004
 10
105.009655380692
 20
239.9896942083004
 97
        0
 92
        7
 72
     0
 73
     1
 93
        4
 10
5.009655380692038
 20
139.9896942083004
 10
55.00965515018959
 20
139.9896942083004
 10
55.00965515018965
 20
189.9896942083004
 10
5.009655380692095
 20
189.9896942083003
 97
        0
 75
     0
 76
     1
 47
0.2040888213119329
 98
        2
 10
79.80646279884701
 20
220.4911501062746
 10
22.66159290957921
 20
171.8698018919377
  0
HATCH
  5
3E5
330
1F
100
AcDbEntity
  8
0
100
AcDbHatch
 10
0.0
 20
0.0
 30
0.0
210
0.0
220
0.0
230
1.0
  2
SOLID
 70
     1
 71
     0
 91
        2
 92
        7
 72
     0
 73
     1
 93
        4
 10
155.009655380692
 20
239.9896942083004
 10
155.009655380692
 20
189.9896942083004
 10
205.0096553806921
 20
189.9896942083004
 10
205.0096553806921
 20
239.9896942083004
 97
        0
 92
        7
 72
     0
 73
     1
 93
        4
 10
105.009655380692
 20
139.9896942083004
 10
155.0096551501895
 20
139.9896942083004
 10
155.0096551501896
 20
189.9896942083004
 10
105.009655380692
 20
189.9896942083003
 97
        0
 75
     0
 76
     1
 47
0.2040888213119329
 98
        2
 10
179.806462798847
 20
220.4911501062746
 10
122.6615929095792
 20
171.8698018919377
  0
HATCH
  5
3E6
330
1F
100
AcDbEntity
  8
0
100
AcDbHatch
 10
0.0
 20
0.0
 30
0.0
210
0.0
220
0.0
230
1.0
  2
SOLID
 70
     1
 71
     0
 91
        2
 92
        7
 72
     0
 73
     1
 93
        4
 10
255.0096553806921
 20
239.9896942083004
 10
255.0096553806921
 20
189.9896942083004
 10
305.0096553806921
 20
189.9896942083004
 10
305.0096553806921
 20
239.9896942083004
 97
        0
 92
        7
 72
     0
 73
     1
 93
        4
 10
205.009655380692
 20
139.9896942083004
 10
255.0096551501896
 20
139.9896942083004
 10
255.0096551501896
 20
189.9896942083004
 10
205.0096553806921
 20
189.9896942083003
 97
        0
 75
     0
 76
     1
 47
0.2040888213119329
 98
        2
 10
279.806462798847
 20
220.4911501062746
 10
222.6615929095792
 20
171.8698018919377
  0
HATCH
  5
3E7
330
1F
100
AcDbEntity
  8
0
100
AcDbHatch
 10
0.0
 20
0.0
 30
0.0
210
0.0
220
0.0
230
1.0
  2
SOLID
 70
     1
 71
     0
 91
        2
 92
        7
 72
     0
 73
     1
 93
        4
 10
355.0096553806921
 20
239.9896942083004
 10
355.0096553806921
 20
189.9896942083004
 10
405.0096553806921
 20
189.9896942083004
 10
405.0096553806921
 20
239.9896942083004
 97
        0
 92
        7
 72
     0
 73
     1
 93
        4
 10
305.009655380692
 20
139.9896942083004
 10
355.0096551501896
 20
139.9896942083004
 10
355.0096551501896
 20
189.9896942083004
 10
305.0096553806921
 20
189.9896942083003
 97
        0
 75
     0
 76
     1
 47
0.2040888213119329
 98
        2
 10
379.806462798847
 20
220.4911501062746
 10
322.6615929095792
 20
171.8698018919377
  0
HATCH
  5
3E8
330
1F
100
AcDbEntity
  8
0
100
AcDbHatch
 10
0.0
 20
0.0
 30
0.0
210
0.0
220
0.0
230
1.0
  2
SOLID
 70
     1
 71
     0
 91
        2
 92
        7
 72
     0
 73
     1
 93
        4
 10
455.0096553806921
 20
239.9896942083004
 10
455.0096553806921
 20
189.9896942083004
 10
505.0096553806921
 20
189.9896942083004
 10
505.0096553806921
 20
239.9896942083004
 97
        0
 92
        7
 72
     0
 73
     1
 93
        4
 10
405.009655380692
 20
139.9896942083004
 10
455.0096551501895
 20
139.9896942083004
 10
455.0096551501896
 20
189.9896942083004
 10
405.0096553806921
 20
189.9896942083003
 97
        0
 75
     0
 76
     1
 47
0.2040888213119329
 98
        2
 10
479.806462798847
 20
220.4911501062746
 10
422.6615929095792
 20
171.8698018919377
  0
HATCH
  5
3E9
330
1F
100
AcDbEntity
  8
0
100
AcDbHatch
 10
0.0
 20
0.0
 30
0.0
210
0.0
220
0.0
230
1.0
  2
SOLID
 70
     1
 71
     0
 91
        2
 92
        7
 72
     0
 73
     1
 93
        4
 10
555.009655380692
 20
139.9896942083004
 10
555.009655380692
 20
89.98969420830045
 10
605.009655380692
 20
89.98969420830041
 10
605.009655380692
 20
139.9896942083004
 97
        0
 92
        7
 72
     0
 73
     1
 93
        4
 10
505.009655380692
 20
39.98969420830042
 10
555.0096551501895
 20
39.98969420830042
 10
555.0096551501897
 20
89.98969420830041
 10
505.0096553806921
 20
89.98969420830039
 97
        0
 75
     0
 76
     1
 47
0.2040888213119329
 98
        2
 10
579.8064627988469
 20
120.4911501062746
 10
522.6615929095792
 20
71.86980189193775
  0
HATCH
  5
3EA
330
1F
100
AcDbEntity
  8
0
100
AcDbHatch
 10
0.0
 20
0.0
 30
0.0
210
0.0
220
0.0
230
1.0
  2
SOLID
 70
     1
 71
     0
 91
        2
 92
        7
 72
     0
 73
     1
 93
        4
 10
555.009655380692
 20
339.9896942083004
 10
555.009655380692
 20
289.9896942083003
 10
605.009655380692
 20
289.9896942083003
 10
605.009655380692
 20
339.9896942083004
 97
        0
 92
        7
 72
     0
 73
     1
 93
        4
 10
505.009655380692
 20
239.9896942083004
 10
555.0096551501895
 20
239.9896942083004
 10
555.0096551501897
 20
289.9896942083003
 10
505.0096553806921
 20
289.9896942083003
 97
        0
 75
     0
 76
     1
 47
0.2040888213119329
 98
        2
 10
579.8064627988469
 20
320.4911501062746
 10
522.6615929095792
 20
271.8698018919377
  0
HATCH
  5
3EB
330
1F
100
AcDbEntity
  8
0
100
AcDbHatch
 10
0.0
 20
0.0
 30
0.0
210
0.0
220
0.0
230
1.0
  2
SOLID
 70
     1
 71
     0
 91
        2
 92
        7
 72
     0
 73
     1
 93
        4
 10
555.009655380692
 20
439.9896942083004
 10
555.009655380692
 20
389.9896942083003
 10
605.009655380692
 20
389.9896942083003
 10
605.009655380692
 20
439.9896942083004
 97
        0
 92
        7
 72
     0
 73
     1
 93
        4
 10
505.009655380692
 20
339.9896942083004
 10
555.0096551501895
 20
339.9896942083004
 10
555.0096551501897
 20
389.9896942083003
 10
505.0096553806921
 20
389.9896942083003
 97
        0
 75
     0
 76
     1
 47
0.2040888213119329
 98
        2
 10
579.8064627988469
 20
420.4911501062746
 10
522.6615929095792
 20
371.8698018919377
  0
HATCH
  5
3EC
330
1F
100
AcDbEntity
  8
0
100
AcDbHatch
 10
0.0
 20
0.0
 30
0.0
210
0.0
220
0.0
230
1.0
  2
SOLID
 70
     1
 71
     0
 91
        2
 92
        7
 72
     0
 73
     1
 93
        4
 10
555.009655380692
 20
539.9896942083004
 10
555.009655380692
 20
489.9896942083004
 10
605.009655380692
 20
489.9896942083004
 10
605.009655380692
 20
539.9896942083004
 97
        0
 92
        7
 72
     0
 73
     1
 93
        4
 10
505.009655380692
 20
439.9896942083004
 10
555.0096551501895
 20
439.9896942083004
 10
555.0096551501897
 20
489.9896942083004
 10
505.0096553806921
 20
489.9896942083004
 97
        0
 75
     0
 76
     1
 47
0.2040888213119329
 98
        2
 10
579.8064627988469
 20
520.4911501062746
 10
522.6615929095792
 20
471.8698018919377
  0
HATCH
  5
3ED
330
1F
100
AcDbEntity
  8
0
100
AcDbHatch
 10
0.0
 20
0.0
 30
0.0
210
0.0
220
0.0
230
1.0
  2
SOLID
 70
     1
 71
     0
 91
        2
 92
        7
 72
     0
 73
     1
 93
        4
 10
555.009655380692
 20
639.9896942083004
 10
555.009655380692
 20
589.9896942083004
 10
605.009655380692
 20
589.9896942083004
 10
605.009655380692
 20
639.9896942083004
 97
        0
 92
        7
 72
     0
 73
     1
 93
        4
 10
505.009655380692
 20
539.9896942083004
 10
555.0096551501895
 20
539.9896942083004
 10
555.0096551501897
 20
589.9896942083004
 10
505.0096553806921
 20
589.9896942083004
 97
        0
 75
     0
 76
     1
 47
0.2040888213119329
 98
        2
 10
579.8064627988469
 20
620.4911501062746
 10
522.6615929095792
 20
571.8698018919377
  0
HATCH
  5
3EE
330
1F
100
AcDbEntity
  8
0
100
AcDbHatch
 10
0.0
 20
0.0
 30
0.0
210
0.0
220
0.0
230
1.0
  2
SOLID
 70
     1
 71
     0
 91
        2
 92
        7
 72
     0
 73
     1
 93
        4
 10
555.009655380692
 20
239.9896942083004
 10
555.009655380692
 20
189.9896942083004
 10
605.009655380692
 20
189.9896942083004
 10
605.009655380692
 20
239.9896942083004
 97
        0
 92
        7
 72
     0
 73
     1
 93
        4
 10
505.009655380692
 20
139.9896942083004
 10
555.0096551501895
 20
139.9896942083004
 10
555.0096551501897
 20
189.9896942083004
 10
505.0096553806921
 20
189.9896942083003
 97
        0
 75
     0
 76
     1
 47
0.2040888213119329
 98
        2
 10
579.8064627988469
 20
220.4911501062746
 10
522.6615929095792
 20
171.8698018919377
  0
HATCH
  5
3EF
330
1F
100
AcDbEntity
  8
0
100
AcDbHatch
 10
0.0
 20
0.0
 30
0.0
210
0.0
220
0.0
230
1.0
  2
SOLID
 70
     1
 71
     0
 91
        2
 92
        7
 72
     0
 73
     1
 93
        4
 10
655.009655380692
 20
139.9896942083004
 10
655.009655380692
 20
89.98969420830045
 10
705.009655380692
 20
89.98969420830041
 10
705.009655380692
 20
139.9896942083004
 97
        0
 92
        7
 72
     0
 73
     1
 93
        4
 10
605.009655380692
 20
39.98969420830042
 10
655.0096551501895
 20
39.98969420830042
 10
655.0096551501897
 20
89.98969420830041
 10
605.009655380692
 20
89.98969420830039
 97
        0
 75
     0
 76
     1
 47
0.2040888213119329
 98
        2
 10
679.8064627988469
 20
120.4911501062746
 10
622.6615929095792
 20
71.86980189193775
  0
HATCH
  5
3F0
330
1F
100
AcDbEntity
  8
0
100
AcDbHatch
 10
0.0
 20
0.0
 30
0.0
210
0.0
220
0.0
230
1.0
  2
SOLID
 70
     1
 71
     0
 91
        2
 92
        7
 72
     0
 73
     1
 93
        4
 10
655.009655380692
 20
339.9896942083004
 10
655.009655380692
 20
289.9896942083003
 10
705.009655380692
 20
289.9896942083003
 10
705.009655380692
 20
339.9896942083004
 97
        0
 92
        7
 72
     0
 73
     1
 93
        4
 10
605.009655380692
 20
239.9896942083004
 10
655.0096551501895
 20
239.9896942083004
 10
655.0096551501897
 20
289.9896942083003
 10
605.009655380692
 20
289.9896942083003
 97
        0
 75
     0
 76
     1
 47
0.2040888213119329
 98
        2
 10
679.8064627988469
 20
320.4911501062746
 10
622.6615929095792
 20
271.8698018919377
  0
HATCH
  5
3F1
330
1F
100
AcDbEntity
  8
0
100
AcDbHatch
 10
0.0
 20
0.0
 30
0.0
210
0.0
220
0.0
230
1.0
  2
SOLID
 70
     1
 71
     0
 91
        2
 92
        7
 72
     0
 73
     1
 93
        4
 10
655.009655380692
 20
439.9896942083004
 10
655.009655380692
 20
389.9896942083003
 10
705.009655380692
 20
389.9896942083003
 10
705.009655380692
 20
439.9896942083004
 97
        0
 92
        7
 72
     0
 73
     1
 93
        4
 10
605.009655380692
 20
339.9896942083004
 10
655.0096551501895
 20
339.9896942083004
 10
655.0096551501897
 20
389.9896942083003
 10
605.009655380692
 20
389.9896942083003
 97
        0
 75
     0
 76
     1
 47
0.2040888213119329
 98
        2
 10
679.8064627988469
 20
420.4911501062746
 10
622.6615929095792
 20
371.8698018919377
  0
HATCH
  5
3F2
330
1F
100
AcDbEntity
  8
0
100
AcDbHatch
 10
0.0
 20
0.0
 30
0.0
210
0.0
220
0.0
230
1.0
  2
SOLID
 70
     1
 71
     0
 91
        2
 92
        7
 72
     0
 73
     1
 93
        4
 10
655.009655380692
 20
539.9896942083004
 10
655.009655380692
 20
489.9896942083004
 10
705.009655380692
 20
489.9896942083004
 10
705.009655380692
 20
539.9896942083004
 97
        0
 92
        7
 72
     0
 73
     1
 93
        4
 10
605.009655380692
 20
439.9896942083004
 10
655.0096551501895
 20
439.9896942083004
 10
655.0096551501897
 20
489.9896942083004
 10
605.009655380692
 20
489.9896942083004
 97
        0
 75
     0
 76
     1
 47
0.2040888213119329
 98
        2
 10
679.8064627988469
 20
520.4911501062746
 10
622.6615929095792
 20
471.8698018919377
  0
HATCH
  5
3F3
330
1F
100
AcDbEntity
  8
0
100
AcDbHatch
 10
0.0
 20
0.0
 30
0.0
210
0.0
220
0.0
230
1.0
  2
SOLID
 70
     1
 71
     0
 91
        2
 92
        7
 72
     0
 73
     1
 93
        4
 10
655.009655380692
 20
639.9896942083004
 10
655.009655380692
 20
589.9896942083004
 10
705.009655380692
 20
589.9896942083004
 10
705.009655380692
 20
639.9896942083004
 97
        0
 92
        7
 72
     0
 73
     1
 93
        4
 10
605.009655380692
 20
539.9896942083004
 10
655.0096551501895
 20
539.9896942083004
 10
655.0096551501897
 20
589.9896942083004
 10
605.009655380692
 20
589.9896942083004
 97
        0
 75
     0
 76
     1
 47
0.2040888213119329
 98
        2
 10
679.8064627988469
 20
620.4911501062746
 10
622.6615929095792
 20
571.8698018919377
  0
HATCH
  5
3F4
330
1F
100
AcDbEntity
  8
0
100
AcDbHatch
 10
0.0
 20
0.0
 30
0.0
210
0.0
220
0.0
230
1.0
  2
SOLID
 70
     1
 71
     0
 91
        2
 92
        7
 72
     0
 73
     1
 93
        4
 10
655.009655380692
 20
239.9896942083004
 10
655.009655380692
 20
189.9896942083004
 10
705.009655380692
 20
189.9896942083004
 10
705.009655380692
 20
239.9896942083004
 97
        0
 92
        7
 72
     0
 73
     1
 93
        4
 10
605.009655380692
 20
139.9896942083004
 10
655.0096551501895
 20
139.9896942083004
 10
655.0096551501897
 20
189.9896942083004
 10
605.009655380692
 20
189.9896942083003
 97
        0
 75
     0
 76
     1
 47
0.2040888213119329
 98
        2
 10
679.8064627988469
 20
220.4911501062746
 10
622.6615929095792
 20
171.8698018919377
  0
HATCH
  5
3F5
330
1F
100
AcDbEntity
  8
0
100
AcDbHatch
 10
0.0
 20
0.0
 30
0.0
210
0.0
220
0.0
230
1.0
  2
SOLID
 70
     1
 71
     0
 91
        2
 92
        7
 72
     0
 73
     1
 93
        4
 10
-44.99034461930789
 20
139.9896942083004
 10
-44.9903446193079
 20
89.98969420830045
 10
5.009655380692095
 20
89.98969420830041
 10
5.009655380692095
 20
139.9896942083004
 97
        0
 92
        7
 72
     0
 73
     1
 93
        4
 10
-94.99034461930795
 20
39.98969420830042
 10
-44.99034484981041
 20
39.98969420830042
 10
-44.99034484981035
 20
89.98969420830041
 10
-94.9903446193079
 20
89.98969420830039
 97
        0
 75
     0
 76
     1
 47
0.2040888213119329
 98
        2
 10
-20.19353720115299
 20
120.4911501062746
 10
-77.33840709042079
 20
71.86980189193775
  0
HATCH
  5
3F6
330
1F
100
AcDbEntity
  8
0
100
AcDbHatch
 10
0.0
 20
0.0
 30
0.0
210
0.0
220
0.0
230
1.0
  2
SOLID
 70
     1
 71
     0
 91
        2
 92
        7
 72
     0
 73
     1
 93
        4
 10
-44.99034461930789
 20
339.9896942083004
 10
-44.9903446193079
 20
289.9896942083003
 10
5.009655380692095
 20
289.9896942083003
 10
5.009655380692095
 20
339.9896942083004
 97
        0
 92
        7
 72
     0
 73
     1
 93
        4
 10
-94.99034461930795
 20
239.9896942083004
 10
-44.99034484981041
 20
239.9896942083004
 10
-44.99034484981035
 20
289.9896942083003
 10
-94.9903446193079
 20
289.9896942083003
 97
        0
 75
     0
 76
     1
 47
0.2040888213119329
 98
        2
 10
-20.19353720115299
 20
320.4911501062746
 10
-77.33840709042079
 20
271.8698018919377
  0
HATCH
  5
3F7
330
1F
100
AcDbEntity
  8
0
100
AcDbHatch
 10
0.0
 20
0.0
 30
0.0
210
0.0
220
0.0
230
1.0
  2
SOLID
 70
     1
 71
     0
 91
        2
 92
        7
 72
     0
 73
     1
 93
        4
 10
-44.99034461930789
 20
439.9896942083004
 10
-44.9903446193079
 20
389.9896942083003
 10
5.009655380692095
 20
389.9896942083003
 10
5.009655380692095
 20
439.9896942083004
 97
        0
 92
        7
 72
     0
 73
     1
 93
        4
 10
-94.99034461930795
 20
339.9896942083004
 10
-44.99034484981041
 20
339.9896942083004
 10
-44.99034484981035
 20
389.9896942083003
 10
-94.9903446193079
 20
389.9896942083003
 97
        0
 75
     0
 76
     1
 47
0.2040888213119329
 98
        2
 10
-20.19353720115299
 20
420.4911501062746
 10
-77.33840709042079
 20
371.8698018919377
  0
HATCH
  5
3F8
330
1F
100
AcDbEntity
  8
0
100
AcDbHatch
 10
0.0
 20
0.0
 30
0.0
210
0.0
220
0.0
230
1.0
  2
SOLID
 70
     1
 71
     0
 91
        2
 92
        7
 72
     0
 73
     1
 93
        4
 10
-44.99034461930789
 20
539.9896942083004
 10
-44.9903446193079
 20
489.9896942083004
 10
5.009655380692095
 20
489.9896942083004
 10
5.009655380692095
 20
539.9896942083004
 97
        0
 92
        7
 72
     0
 73
     1
 93
        4
 10
-94.99034461930795
 20
439.9896942083004
 10
-44.99034484981041
 20
439.9896942083004
 10
-44.99034484981035
 20
489.9896942083004
 10
-94.9903446193079
 20
489.9896942083004
 97
        0
 75
     0
 76
     1
 47
0.2040888213119329
 98
        2
 10
-20.19353720115299
 20
520.4911501062746
 10
-77.33840709042079
 20
471.8698018919377
  0
HATCH
  5
3F9
330
1F
100
AcDbEntity
  8
0
100
AcDbHatch
 10
0.0
 20
0.0
 30
0.0
210
0.0
220
0.0
230
1.0
  2
SOLID
 70
     1
 71
     0
 91
        2
 92
        7
 72
     0
 73
     1
 93
        4
 10
-44.99034461930789
 20
639.9896942083004
 10
-44.9903446193079
 20
589.9896942083004
 10
5.009655380692095
 20
589.9896942083004
 10
5.009655380692095
 20
639.9896942083004
 97
        0
 92
        7
 72
     0
 73
     1
 93
        4
 10
-94.99034461930795
 20
539.9896942083004
 10
-44.99034484981041
 20
539.9896942083004
 10
-44.99034484981035
 20
589.9896942083004
 10
-94.9903446193079
 20
589.9896942083004
 97
        0
 75
     0
 76
     1
 47
0.2040888213119329
 98
        2
 10
-20.19353720115299
 20
620.4911501062746
 10
-77.33840709042079
 20
571.8698018919377
  0
HATCH
  5
3FA
330
1F
100
AcDbEntity
  8
0
100
AcDbHatch
 10
0.0
 20
0.0
 30
0.0
210
0.0
220
0.0
230
1.0
  2
SOLID
 70
     1
 71
     0
 91
        2
 92
        7
 72
     0
 73
     1
 93
        4
 10
-44.99034461930789
 20
239.9896942083004
 10
-44.9903446193079
 20
189.9896942083004
 10
5.009655380692095
 20
189.9896942083004
 10
5.009655380692095
 20
239.9896942083004
 97
        0
 92
        7
 72
     0
 73
     1
 93
        4
 10
-94.99034461930795
 20
139.9896942083004
 10
-44.99034484981041
 20
139.9896942083004
 10
-44.99034484981035
 20
189.9896942083004
 10
-94.9903446193079
 20
189.9896942083003
 97
        0
 75
     0
 76
     1
 47
0.2040888213119329
 98
        2
 10
-20.19353720115299
 20
220.4911501062746
 10
-77.33840709042079
 20
171.8698018919377
  0
VIEWPORT
  5
25B
102
{ACAD_XDICTIONARY
360
458
102
}
330
23
100
AcDbEntity
 67
     1
  8
0
 62
    51
100
AcDbViewport
 10
548.3889611430888
 20
316.558345726096
 30
0.0
 40
1092.139669911208
 41
872.2023622489317
 68
     1
 69
     1
 12
548.3889611430888
 22
316.558345726096
 13
0.0
 23
0.0
 14
10.0
 24
10.0
 15
10.0
 25
10.0
 16
0.0
 26
0.0
 36
1.0
 17
0.0
 27
0.0
 37
0.0
 42
50.0
 43
0.0
 44
0.0
 45
872.2023622489317
 50
0.0
 51
0.0
 72
   100
 90
    32800
  1

281
     0
 71
     0
 74
     0
110
0.0
120
0.0
130
0.0
111
1.0
121
0.0
131
0.0
112
0.0
122
1.0
132
0.0
 79
     0
146
0.0
  0
VIEWPORT
  5
25D
102
{ACAD_XDICTIONARY
360
45A
102
}
330
23
100
AcDbEntity
 67
     1
  8
ventanas
 62
    51
100
AcDbViewport
 10
413.9397755136695
 20
300.3469538101786
 30
0.0
 40
817.162065963978
 41
657.750273728878
 68
     2
 69
     2
 12
313.3918189929259
 22
340.5453536570409
 13
0.0
 23
0.0
 14
10.0
 24
10.0
 15
5.0
 25
5.0
 16
0.0
 26
0.0
 36
1.0
 17
0.0
 27
0.0
 37
0.0
 42
50.0
 43
0.0
 44
0.0
 45
657.7505873642971
 50
0.0
 51
0.0
 72
   100
 90
    32864
  1

281
     0
 71
     1
 74
     0
110
0.0
120
0.0
130
0.0
111
1.0
121
0.0
131
0.0
112
0.0
122
1.0
132
0.0
 79
     0
146
0.0
1001
GENIUS_GENSCREG_15
1000
PF
1040
0.0
1000
DF
1040
0.0
1000
MIN
1011
5.358742531680491
1021
-28.52818305426035
1031
0.0
1000
MAX
1011
822.5208084956584
1021
629.2220906746177
1031
0.0
1000
FLAGS
1070
     4
1001
GENIUS_GENOBJ-N-SDF_13
1002
{
1000
OWNER
1000
GEN
1002
}
1001
GENIUS_GENODEF_13
1002
{
1000
HIER
1070
     0
1002
}
1002
{
1000
MANEDIT
1070
     0
1002
}
1002
{
1000
NOSEL
1070
     0
1002
}
1002
{
1000
BEHIND
1070
     0
1002
}
1002
{
1000
OTHER
1070
     0
1002
}
1002
{
1000
REACTOR
1002
}
  0
VIEWPORT
  5
3FC
102
{ACAD_XDICTIONARY
360
45C
102
}
330
23
100
AcDbEntity
 67
     1
  8
ventanas
 62
     7
100
AcDbViewport
 10
1020.631506129479
 20
308.0894504207114
 30
0.0
 40
337.7135411358313
 41
561.6648041554431
 68
     3
 69
     3
 12
10.42533115039088
 22
38.71815450754465
 13
0.0
 23
0.0
 14
10.0
 24
10.0
 15
5.0
 25
5.0
 16
0.0
 26
0.0
 36
1.0
 17
305.0008353555142
 27
339.9896438276556
 37
0.0
 42
50.0
 43
0.0
 44
0.0
 45
1123.32960829038
 50
0.0
 51
90.0
 72
   100
 90
    32864
  1

281
     0
 71
     1
 74
     0
110
0.0
120
0.0
130
0.0
111
1.0
121
0.0
131
0.0
112
0.0
122
1.0
132
0.0
 79
     0
146
0.0
1001
GENIUS_GENSCREG_15
1000
PF
1040
0.0
1000
DF
1040
0.0
1000
MIN
1011
851.7747355615638
1021
27.25704834298994
1031
0.0
1000
MAX
1011
1189.488276697395
1021
588.921852498433
1031
0.0
1000
FLAGS
1070
     4
1001
GENIUS_GENOBJ-N-SDF_13
1002
{
1000
OWNER
1000
GEN
1002
}
1001
GENIUS_GENODEF_13
1002
{
1000
HIER
1070
     0
1002
}
1002
{
1000
MANEDIT
1070
     0
1002
}
1002
{
1000
NOSEL
1070
     0
1002
}
1002
{
1000
BEHIND
1070
     0
1002
}
1002
{
1000
OTHER
1070
     0
1002
}
1002
{
1000
REACTOR
1002
}
  0
ENDSEC
  0
SECTION
  2
OBJECTS
  0
DICTIONARY
  5
C
330
0
100
AcDbDictionary
281
     1
  3
ACAD_COLOR
350
255
  3
ACAD_GROUP
350
D
  3
ACAD_LAYOUT
350
1A
  3
ACAD_MATERIAL
350
254
  3
ACAD_MLINESTYLE
350
17
  3
ACAD_PLOTSETTINGS
350
19
  3
ACAD_PLOTSTYLENAME
350
E
  3
AcDbVariableDictionary
350
1B9
  3
AcmDictionary
350
521
  3
AMG
350
4A2
  3
AMGSNAPSETTINGS
350
56C
  3
DWGPROPS
350
524
  3
MAPISURF_MODULE
350
4F3
  0
DICTIONARY
  5
24E
330
1F
100
AcDbDictionary
280
     1
281
     1
  3
ACAD_INDEX
360
566
  3
ACAD_SORTENTS
360
24F
  0
DICTIONARY
  5
454
330
247
100
AcDbDictionary
280
     1
281
     1
  3
ACAD_XREC_ROUNDTRIP
360
455
  0
DICTIONARY
  5
456
330
249
100
AcDbDictionary
280
     1
281
     1
  3
ACAD_XREC_ROUNDTRIP
360
457
  0
DICTIONARY
  5
458
330
25B
100
AcDbDictionary
280
     1
281
     1
  3
ACAD_XREC_ROUNDTRIP
360
459
  0
DICTIONARY
  5
45A
330
25D
100
AcDbDictionary
280
     1
281
     1
  3
ACAD_XREC_ROUNDTRIP
360
45B
  0
DICTIONARY
  5
45C
330
3FC
100
AcDbDictionary
280
     1
281
     1
  3
ACAD_XREC_ROUNDTRIP
360
45D
  0
DICTIONARY
  5
255
102
{ACAD_REACTORS
330
C
102
}
330
C
100
AcDbDictionary
281
     1
  0
DICTIONARY
  5
D
102
{ACAD_REACTORS
330
C
102
}
330
C
100
AcDbDictionary
281
     1
  0
DICTIONARY
  5
1A
102
{ACAD_REACTORS
330
C
102
}
330
C
100
AcDbDictionary
281
     1
  3
Model
350
22
  3
Presentación1
350
1E
  3
Presentación2
350
26
  0
DICTIONARY
  5
254
102
{ACAD_REACTORS
330
C
102
}
330
C
100
AcDbDictionary
281
     1
  0
DICTIONARY
  5
17
102
{ACAD_REACTORS
330
C
102
}
330
C
100
AcDbDictionary
281
     1
  3
Standard
350
18
  0
DICTIONARY
  5
19
102
{ACAD_REACTORS
330
C
102
}
330
C
100
AcDbDictionary
281
     1
  0
ACDBDICTIONARYWDFLT
  5
E
102
{ACAD_REACTORS
330
C
102
}
330
C
100
AcDbDictionary
281
     1
  3
Normal
350
F
100
AcDbDictionaryWithDefault
340
F
  0
DICTIONARY
  5
1B9
102
{ACAD_REACTORS
330
C
102
}
330
C
100
AcDbDictionary
281
     1
  3
DIMASSOC
350
45E
  3
INDEXCTL
350
56A
  3
PROJECTNAME
350
45F
  3
SORTENTS
350
1BA
  0
DICTIONARY
  5
521
102
{ACAD_REACTORS
330
C
102
}
330
C
100
AcDbDictionary
281
     1
  3
AcmBOMDATA
350
522
  3
AcmStdDictionary
350
530
  0
DICTIONARY
  5
4A2
102
{ACAD_REACTORS
330
C
102
}
330
C
100
AcDbDictionary
281
     1
  3
AcMgSettings
350
4A3
  3
AMGLAYCFG
350
532
  0
DICTIONARY
  5
56C
102
{ACAD_REACTORS
330
C
102
}
330
C
100
AcDbDictionary
281
     1
  3
HATCH (1)
350
56D
  3
HATCH (2)
350
56E
  0
XRECORD
  5
524
102
{ACAD_REACTORS
330
C
102
}
330
C
100
AcDbXrecord
280
     1
  1
DWGPROPS COOKIE
  2

  3

  4

  6

  7

  8

  9

300
AmdtFileType=84
301
=
302
=
303
=
304
=
305
=
306
=
307
=
308
=
309
=
 40
0.2273624305555555
 41
2452351.754275347
 42
2453137.864927731
  1

 90
        1
  0
DICTIONARY
  5
566
102
{ACAD_REACTORS
330
24E
102
}
330
24E
100
AcDbDictionary
281
     1
  3
*A1
350
567
  0
SORTENTSTABLE
  5
24F
102
{ACAD_REACTORS
330
24E
102
}
330
24E
100
AcDbSortentsTable
330
1F
331
1FF
  5
202
  0
XRECORD
  5
455
102
{ACAD_REACTORS
330
454
102
}
330
454
100
AcDbXrecord
280
     1
102
SHADEPLOT
 70
     0
  0
XRECORD
  5
457
102
{ACAD_REACTORS
330
456
102
}
330
456
100
AcDbXrecord
280
     1
102
SHADEPLOT
 70
     0
  0
XRECORD
  5
459
102
{ACAD_REACTORS
330
458
102
}
330
458
100
AcDbXrecord
280
     1
102
SHADEPLOT
 70
     0
  0
XRECORD
  5
45B
102
{ACAD_REACTORS
330
45A
102
}
330
45A
100
AcDbXrecord
280
     1
102
SHADEPLOT
 70
     0
  0
XRECORD
  5
45D
102
{ACAD_REACTORS
330
45C
102
}
330
45C
100
AcDbXrecord
280
     1
102
SHADEPLOT
 70
     0
  0
LAYOUT
  5
22
102
{ACAD_XDICTIONARY
360
450
102
}
102
{ACAD_REACTORS
330
1A
102
}
330
1A
100
AcDbPlotSettings
  1

  2
Acrobat PDFWriter
  4
A3
  6

 40
7.143749713897705
 41
7.143756389617919
 42
7.143768310546875
 43
7.14373779296875
 44
297.1270751953125
 45
420.1583251953125
 46
0.0
 47
0.0
 48
-117.7305942202906
 49
16.69127215320804
140
734.772974834263
141
674.3845162712691
142
1.0
143
2.5
 70
 11936
 72
     1
 73
     1
 74
     4
  7

 75
     0
147
0.4
148
117.7305942202906
149
-16.69127215320804
100
AcDbLayout
  1
Model
 70
     1
 71
     0
 10
0.0
 20
0.0
 11
12.0
 21
9.0
 12
0.0
 22
0.0
 32
0.0
 14
0.0
 24
0.0
 34
0.0
 15
0.0
 25
0.0
 35
0.0
146
0.0
 13
0.0
 23
0.0
 33
0.0
 16
1.0
 26
0.0
 36
0.0
 17
0.0
 27
1.0
 37
0.0
 76
     0
330
1F
  0
LAYOUT
  5
1E
102
{ACAD_XDICTIONARY
360
44E
102
}
102
{ACAD_REACTORS
330
1A
102
}
330
1A
100
AcDbPlotSettings
  1

  2
HP DeskJet 695C
  4
A4
  6

 40
4.011083126068115
 41
13.4937629699707
 42
4.434417724609375
 43
7.14373779296875
 44
210.0579986572265
 45
296.9259948730469
 46
0.0
 47
0.0
 48
0.0
 49
0.0
140
0.0
141
0.0
142
1.0
143
1.0
 70
   688
 72
     1
 73
     0
 74
     5
  7

 75
    16
147
1.0
148
0.0
149
0.0
100
AcDbLayout
  1
Presentación1
 70
     1
 71
     1
 10
-4.011083126068115
 20
-13.4937629699707
 11
206.0469155311584
 21
283.4322319030761
 12
0.0
 22
0.0
 32
0.0
 14
-1.688610330773144
 24
-2.787067080882934
 34
0.0
 15
203.0904536509794
 25
277.1590718989349
 35
0.0
146
0.0
 13
0.0
 23
0.0
 33
0.0
 16
1.0
 26
0.0
 36
0.0
 17
0.0
 27
1.0
 37
0.0
 76
     0
330
1B
331
247
  0
LAYOUT
  5
26
102
{ACAD_XDICTIONARY
360
452
102
}
102
{ACAD_REACTORS
330
1A
102
}
330
1A
100
AcDbPlotSettings
  1

  2
HP DesignJet 500 24_HPGL2 Card.pc3
  4
User257
  6

 40
4.995333194732666
 41
16.97574996948242
 42
4.99530029296875
 43
16.9757080078125
 44
609.5576782226562
 45
1239.943359375
 46
0.0
 47
0.0
 48
0.0
 49
0.0
140
0.0
141
0.0
142
1.0
143
1.0
 70
   688
 72
     1
 73
     1
 74
     5
  7

 75
    16
147
1.0
148
0.0
149
0.0
100
AcDbLayout
  1
Presentación2
 70
     1
 71
     2
 10
-16.9757080078125
 20
-4.995333194732666
 11
1222.967651367187
 21
604.5623450279236
 12
0.0
 22
0.0
 32
0.0
 14
5.358742531680491
 24
-28.52818305426035
 34
0.0
 15
1189.488276697395
 25
629.2220906746177
 35
0.0
146
0.0
 13
0.0
 23
0.0
 33
0.0
 16
1.0
 26
0.0
 36
0.0
 17
0.0
 27
1.0
 37
0.0
 76
     0
330
23
331
25B
  0
MLINESTYLE
  5
18
102
{ACAD_REACTORS
330
17
102
}
330
17
100
AcDbMlineStyle
  2
STANDARD
 70
     0
  3

 62
   256
 51
90.0
 52
90.0
 71
     2
 49
0.5
 62
   256
  6
BYLAYER
 49
-0.5
 62
   256
  6
BYLAYER
  0
ACDBPLACEHOLDER
  5
F
102
{ACAD_REACTORS
330
E
102
}
330
E
  0
DICTIONARYVAR
  5
45E
102
{ACAD_REACTORS
330
1B9
102
}
330
1B9
100
DictionaryVariables
280
     0
  1
1
  0
DICTIONARYVAR
  5
56A
102
{ACAD_REACTORS
330
1B9
102
}
330
1B9
100
DictionaryVariables
280
     0
  1
1
  0
DICTIONARYVAR
  5
45F
102
{ACAD_REACTORS
330
1B9
102
}
330
1B9
100
DictionaryVariables
280
     0
  1

  0
DICTIONARYVAR
  5
1BA
102
{ACAD_REACTORS
330
1B9
102
}
330
1B9
100
DictionaryVariables
280
     0
  1
127
  0
ACMDATADICTIONARY
  5
522
102
{ACAD_REACTORS
330
521
102
}
330
521
100
AcDbDictionary
281
     1
  3
*A1
350
523
100
AcmDataDictionary
  0
DICTIONARY
  5
530
102
{ACAD_REACTORS
330
521
102
}
330
521
100
AcDbDictionary
281
     1
  3
ISO
350
531
  0
DICTIONARY
  5
4A3
102
{ACAD_REACTORS
330
4A2
102
}
330
4A2
100
AcDbDictionary
281
     1
  3
DWGSETTINGS
350
4A4
  3
TRANSSETTINGS
350
4A8
  0
ACAMGFILTERDAT
  5
56D
102
{ACAD_REACTORS
330
56C
102
}
330
56C
100
AcAmgFilterDat
 70
    15
  1
HATCH
  2
*
  3
*
  4
*
  5
*
290
     1
  0
ACAMGFILTERDAT
  5
56E
102
{ACAD_REACTORS
330
56C
102
}
330
56C
100
AcAmgFilterDat
 70
    15
  1
LINE
  2
8,8N,*-8,*-8N,AM_8,AM_8N,*-AM_8,*-AM_8N
  3
*
  4
*
  5
INSERT,STDPART2D
290
     1
  0
LAYER_INDEX
  5
567
102
{ACAD_REACTORS
330
566
102
}
330
566
100
AcDbIndex
 40
2453137.87124449
100
AcDbLayerIndex
  8
0
360
568
 90
       51
  8
ventanas
360
569
 90
        0
  0
DICTIONARY
  5
450
330
22
100
AcDbDictionary
280
     1
281
     1
  3
ACAD_XREC_ROUNDTRIP
360
451
  0
DICTIONARY
  5
44E
330
1E
100
AcDbDictionary
280
     1
281
     1
  3
ACAD_XREC_ROUNDTRIP
360
44F
  0
DICTIONARY
  5
452
330
26
100
AcDbDictionary
280
     1
281
     1
  3
ACAD_XREC_ROUNDTRIP
360
453
  0
ACMDATAENTRYBLOCK
  5
523
102
{ACAD_REACTORS
330
522
102
}
330
522
100
AcmDataEntry
100
AcmDataEntryBlock
  0
IDBUFFER
  5
568
330
0
100
AcDbIdBuffer
330
3F8
330
3F9
330
3FA
330
1FF
330
3AC
330
3AD
330
3AE
330
3AF
330
3B0
330
3B1
330
3B2
330
3B3
330
3B4
330
3B5
330
3B7
330
3B8
330
3B9
330
3BA
330
3BC
330
3BD
330
3BE
330
3BF
330
3C0
330
3C1
330
3C2
330
3C3
330
3CA
330
3CD
330
3CE
330
3D1
330
3D2
330
3E4
330
3E5
330
3E6
330
3E7
330
3E8
330
3E9
330
3EA
330
3EB
330
3EC
330
3ED
330
3EE
330
3EF
330
3F0
330
3F1
330
3F2
330
3F3
330
3F4
330
3F5
330
3F6
330
3F7
  0
IDBUFFER
  5
569
330
0
100
AcDbIdBuffer
  0
XRECORD
  5
451
102
{ACAD_REACTORS
330
450
102
}
330
450
100
AcDbXrecord
280
     1
102
SHADEPLOT
 70
     0
102
SHADEPLOTRESLEVEL
 70
     2
102
SHADEPLOTCUSTOMDPI
 70
   300
  0
XRECORD
  5
44F
102
{ACAD_REACTORS
330
44E
102
}
330
44E
100
AcDbXrecord
280
     1
102
SHADEPLOT
 70
     0
102
SHADEPLOTRESLEVEL
 70
     2
102
SHADEPLOTCUSTOMDPI
 70
   300
  0
XRECORD
  5
453
102
{ACAD_REACTORS
330
452
102
}
330
452
100
AcDbXrecord
280
     1
102
SHADEPLOT
 70
     1
102
SHADEPLOTRESLEVEL
 70
     2
102
SHADEPLOTCUSTOMDPI
 70
   300
  0
ENDSEC
  0
EOF
